Song name
# A B C D E F G H I J K L M N O P Q R S T U V W X Y Z

Afi - A Deep Slow Panic tab

AFI - A Deep Slow Panic
Album: Burials

Jade usually has tuned his guitar Half step down. But just for the intro I used 
standart tunning...
I love this song! 

(Use a Digital Delay and a Distortion)

Standart Tunning:


e---------------------------------------
B---------------------------------------
G--------------------------12-13-12-----
D-10--10-12--10--12-13-13-----------13--
A---------------------------------------
E---------------------------------------


e----------------------------------------13\slide down -------------------
B-------------------------------------------------------------------------
G--------------------------12-13-12---------------------------------------
D-10--10-12--10--12-13-13-----------15r-----------------------------------
A-------------------------------------------------------------------------
E-------------------------------------------------------------------------


e---------------------------------------
B---------------------------------------
G-12-13-12------------------------------
D----------13-13--12r-------------------
A---------------------------------------
E---------------------------------------


That's it. That's what I know. Have fun! 
Feel free to correct
Tap to rate this tab
# A B C D E F G H I J K L M N O P Q R S T U V W X Y Z