Guitaretab - guitar tabs
Song name
# A B C D E F G H I J K L M N O P Q R S T U V W X Y Z

Afi - Silver And Cold tab

---------------------------------------------------------------------------
                             Silver and Cold - AFI
---------------------------------------------------------------------------
Tabbed by: SonOfGuido
Email: sonofguido@hotmail.com

... Ok, I messed around with this song on the guitar, playing a couple of the tabs
already on here.  I know that this tab is 99% correct for STANDARD TUNING.  With some
help from the other tabs, I came up with new riffs for the verses, etc.  This is how I 
Silver and Cold.

Tuning: Standard

(D)   = distortion
pm    = palm mute
..... = slowly release pm

Intro: Clean

E|----9-13----9-13----9-13----9-16-----9-13-8-9-11-16-14-13-11-13-14---|
B|-11-------9---------------9-------11---------------------------------|
G|-----------------11--------------------------------------------------|
D|---------------------------------------------------------------------|
A|---------------------------------------------------------------------|
E|---------------------------------------------------------------------|

   Distortion
e|---------------------------------------------------------|
B|---------------------------------------------------------|
G|----------------------15-15-15---17-17-17---18-18-18---3-|
D|-888--666--444--666---15-15-15---17-17-17---18-18-18---3-|
A|-888--666--444--666---13-13-13---15-15-15---16-16-16---1-|
E|-666--444--222--444--------------------------------------|

Verse 1: Clean
e|-------------------------------------------------------------|
B|-----------------------------4-------------------------------|
G|-------------------------------3---------------------------8-|
D|---8--4--6--4--8--6--4--6----------8-4--6--4--8--6--4-----8-|
A|--8--4--6--4-8--6--4--6----------8--4-6--4--8--6--4------6-|
E|-6--2--4--2--6--4--2--4----------6--2--4--2--6--4--2---------|

e|------------------------------------------------|
B|------------------------------------------------|
G|-----------------------------------------888888-|
D|--------------------------------8--6--4--888888-|
A|-8-4-6-4-8-6-4-6--8-4-6-4------8--6--4---666666-|
E|-6-2-4-2-6-4-2-4--6-2-4-2-----6--4--2-----------|
   pm                                   (D) pm...........

Chorus: Distortion
e|--------------------------------------------------------------------------|
B|--------------------------------------------------------------------------|
G|-4-4-4-4---------6-6-6-6-8-8-8-8--8-8-8-8-4-4-4-4-6-6-6-6-----------------|
D|-4-4-4-4-4-4-4-4-6-6-6-6-8-8-8-8--8-8-8-8-4-4-4-4-6-6-6-6-8-8-8-8---------|
A|-2-2-2-2-4-4-4-4-4-4-4-4-6-6-6-6--6-6-6-6-2-2-2-2-4-4-4-4-8-8-8-8---------|
E|---------2-2-2-2------------------------------------------6-6-6-6---------|
[ Tab from: http://www.guitaretab.com/a/afi/46585.html ]
e|--------------------------------------------------------------------------|
B|--------------------------------------------------------------------------|
G|-8-8-8-8-4-4-4-4-6-6-6-6-8-8-8-8--8-8-8-8-6-6-6-6-4-4-4-4-4-4-4-4-6-6-6-6-|
D|-8-8-8-8-4-4-4-4-6-6-6-6-8-8-8-8--8-8-8-8-6-6-6-6-4-4-4-4-4-4-4-4-6-6-6-6-|
A|-6-6-6-6-2-2-2-2-4-4-4-4-6-6-6-6--6-6-6-6-4-4-4-4-2-2-2-2-2-2-2-2-4-4-4-4-|
E|--------------------------------------------------------------------------|

Verse 2:
--repeat 1ST part of VERSE 1 as clean, then 2ND part of VERSE 1 but w/ distortion
--then
   "So I, I will paint you in silver..." - distortion
e|----------------------------------------------------------------------|
B|----------------------------------------------------------------------|
G|----------------------------------------------------------------------|
D|-8-x-x-4-x-x-6-x-x-4-x-x-8-x-x-6-x-x-4-x-x-6-x-x-8-x-x-4-x-x-6-x-x-4--|
A|-8-x-x-4-x-x-6-x-x-4-x-x-8-x-x-6-x-x-4-x-x-6-x-x-8-x-x-4-x-x-6-x-x-4--|
E|-6-x-x-2-x-x-4-x-x-2-x-x-6-x-x-4-x-x-2-x-x-4-x-x-6-x-x-2-x-x-4-x-x-2--|

e|-------------------|
B|-------------------|
G|------------888888-|
D|---8--6--4--888888-|
A|--8--6--4---666666-|
E|-6--4--2-----------|

Chorus: Distortion
e|--------------------------------------------------------------------------|
B|--------------------------------------------------------------------------|
G|-4-4-4-4---------6-6-6-6-8-8-8-8--8-8-8-8-4-4-4-4-6-6-6-6-----------------|
D|-4-4-4-4-4-4-4-4-6-6-6-6-8-8-8-8--8-8-8-8-4-4-4-4-6-6-6-6-8-8-8-8---------|
A|-2-2-2-2-4-4-4-4-4-4-4-4-6-6-6-6--6-6-6-6-2-2-2-2-4-4-4-4-8-8-8-8---------|
E|---------2-2-2-2------------------------------------------6-6-6-6---------|

e|--------------------------------------------------------------------------|
B|--------------------------------------------------------------------------|
G|-8-8-8-8-4-4-4-4-6-6-6-6-8-8-8-8--8-8-8-8-6-6-6-6-4-4-4-4-4-4-4-4-6-6-6-6-|
D|-8-8-8-8-4-4-4-4-6-6-6-6-8-8-8-8--8-8-8-8-6-6-6-6-4-4-4-4-4-4-4-4-6-6-6-6-|
A|-6-6-6-6-2-2-2-2-4-4-4-4-6-6-6-6--6-6-6-6-4-4-4-4-2-2-2-2-2-2-2-2-4-4-4-4-|
E|--------------------------------------------------------------------------|

Bridge: Clean
e|-----------------------------------------|----------------------------------|
B|-----------------------------------------|---------------------------4------|
G|-----------------------------------------|----------------------------3-----|
D|---------6-4----------4----------6-4-----|---8--4--6--4--8--6--4--6---------|
A|-------4------------4----------4---------|--8--4--6--4-8--6--4--6----------|x3
E|-6-4-6--------6-4-6------6-4-6-------6-4-|-6--2--4--2--6--4--2--4-----------|

e|-----------------------------------------|
B|-----------------------------------------|
G|-----------------------------------------|
D|--8--4--6--4--8--6--4--6--888888888888---|
A|-8--4--6--4-8--6--4--6---888888888888---|
E|6--2--4--2--6--4--2--4----666666666666---|

Play Chorus for the 3rd time until end... about 2 times.
Just listen to the song.

And that's about it.  Any questions or comments, feel free to email.  THX
SOG
Related for Silver And Cold tab