Song name
# A B C D E F G H I J K L M N O P Q R S T U V W X Y Z

Afi - Scarifice Theory tab

by Jake Walters

e[------------10---8---7-------------------------]
b[---8---8------8---8---8---8--8--8-7---7----7---]
g[-9--99--999----9---9----7--77-77----77--77---7-]
d[-----------------------------------------------]
a[-----------------------------------------------]
E[-----------------------------------------------]

e[------------10---8---7-------------------------]
b[---8--8-------8---8---8--8----8----10--7-------]
g[-9--99--999----9---9---7---77---7--------------]
d[-----------------------------------------------]
a[-----------------------------------------------]
E[-----------------------------------------------]

"Once you finish, all you have to do is repeat the whole thing. If you want to
play the end of the song, just play the second part once. Fingering is a little
strange, but just find one that fits you best.  AFI ROCKS!!!"
Tap to rate this tab
 
# A B C D E F G H I J K L M N O P Q R S T U V W X Y Z