Song name
# A B C D E F G H I J K L M N O P Q R S T U V W X Y Z

Afi - Man In A Suitcase tab

-------------------------------------------------------------------------                            
Man In a Suitcase - AFI
-------------------------------------------------------------------------
Tabbed by: Blaqksails
Email:callum_hendry@hotmail.com

Tuning: Standard
play verses staccato

Verse 1
e|------------------------------------|
B|-10-10----8--8-----5-5----6-6-------|
G|-10-10----9--9-----6-6----7-7-------| (x7
D|-10-10----10-10----7-7----8-8-------|
A|------------------------------------|
E|------------------------------------|

Chorus (figure out strumming yourself)
e|--------------------|
B|--------------------|
G|--------------------|
D|-10-----------------| (x4)
A|-8---10--12--10-----|
E|-----8---10--8------|

Break (Figure out strumming yourself)
e|------------------|
B|------------------|
G|------------------|
D|--10--------------|(x5)
A|--8---10--7--8----|
E|------8---5--6----|

Verse 2
e|------------------------------|
B|-12-12---10-10---7-7---8--8---|
G|-12-12---11-11---8-8---9--9---|
D|-12-12---12-12---9-9---10-10--|
A|------------------------------|
E|------------------------------|

Chorus 2 (figure out strumming yourself)
e|-------------------|
B|-------------------|
G|-------------------| (x5)
D|--12---------------|
A|--10--12--14--12---|
E|------10--12--10---|
Tap to rate this tab
# A B C D E F G H I J K L M N O P Q R S T U V W X Y Z