Song name
# A B C D E F G H I J K L M N O P Q R S T U V W X Y Z

Afi - Miseria Cantare tab

Miseria Cantera
1/2 step down

This song is really short and easy to find out by ear, but if you can't here you go. It 
easy and very short

Guitar 1&2
-|-------------------------|-------------------------------------|------------------|
-|-------------------------|-------------------------------------|------------------|
-|-9---9---12-7---7-7-7-9--|-9-9-9-9---9---12-12-12-7---7-7-7-9--|-12-0-7---7-7-9---|
-|-9---9---12-7---7-7-7-9--|-9-9-9-9---9---12-12-12-7---7-7-7-9--|-12-0-7---7-7-9---|
-|-7---7---10-5---5-5-0-7--|-7-7-7-7---7---10-10-10-5---5-5-0-7--|-10-0-5---5-0-7---|
-|-0---0---0--0---0-0-0-0--|-0-0-0-0---0---0--0--0--0---0-0-0-0--|-0--0-0---0-0-0---|


Guitar 1
-|-------------------------|-------------------------------------|
-|-------------------------|-------------------------------------|
-|-9---9---12-7---7-7-7-9--|-9-9-9-9---9---12-12-12-7---7-7-7-9--|
-|-9---9---12-7---7-7-7-9--|-9-9-9-9---9---12-12-12-7---7-7-7-9--|
-|-7---7---10-5---5-5-0-7--|-7-7-7-7---7---10-10-10-5---5-5-0-7--|
-|-0---0---0--0---0-0-0-0--|-0-0-0-0---0---0--0--0--0---0-0-0-0--|


Guitar 2
-|--------------------------------------------------------------------------|
-|--------------------------------------------------------------------------|
-|-12-12-12-11-11-11-12-12-12-14-14-14-12-12-12-11-11-11-14-14-14-12-12-12--|
-|-X--X--X--X--X--X--X--X--X--X--X--X--X--X--X--X--X--X--X--X--X--X--X--X---|
-|-10-10-10-9--9--9--10-10-10-12-12-12-10-10-10-9--9--9--16-16-16-10-10-10--|
-|--------------------------------------------------------------------------|

-|-------------------------------|
-|-------------------------------|
-|-11-11-11-12-12-12-14-14-14-9--|
-|-X--X--X--X--X--X--X--X--X--9--|
-|-9--9--9--10-10-10-12-12-12-7--|
-|----------------------------0--|
Tap to rate this tab
# A B C D E F G H I J K L M N O P Q R S T U V W X Y Z