Song name
# A B C D E F G H I J K L M N O P Q R S T U V W X Y Z

Afi - Rabbits Are Roadkill On Route 37 tab

----------------------------------------------------------------------------
			     Rabbits Are Roadkill On Rt.37 - AFI
----------------------------------------------------------------------------
Tabbed by:GoodApolloIV
Email:stubblefield_jordan2@yahoo.com

Tuning:Standard

Intro
e|-7+-----7+-7+--7+---------------|
B|---7+-----7+-----7+-------------|
G|-----7+------------7+-----------|
D|--------------------------888---|
A|--------------------------888---|
E|--------------------------666---|
                            ...
e|---------------------------|--------------------------------|
B|--6------6----6---6---6----|--6------6-7p6---6---6---6------|
G|---6------6----6---6-6-6-6-|---6----------6---6---6-6-6-6---|
D|-8--8-6-6--6-4--4----------|-8--8-6-6-------4--4------------|
A|-----------------6---------|--------------------6-----------|
E|---------------------------|--------------------------------|

e|--------------------------------------|--|
B|-----6---------6---------6------------|--|
G|------6---------6---------6-----------|--|
D|-8888--8-6-6666--6-4-4444--4-4--------|x2|
A|------------------------------6666666-|--|
E|--------------------------------------|--|
   ....      ....      ....     .......(2nd time --6666666- not palm muted)
Verse 1
e|-------------------------------------|-----------------------------------|
B|-------------------------------------|-----------------------------------|
G|-------------------------------------|-----------------------------------|
D|-8-888888-6-666666-4-444444-2-222222-|-8-888888-6-666666-4-444444-2~-----|
A|-8-888888-6-666666-4-444444-2-222222-|-8-888888-6-666666-4-444444-2~-----|
E|-6-666666-4-444444-2-222222-0-000000-|-6-666666-4-444444-2-222222-0~-----|
   . ...... . ...... . ...... . ......   .
Chorus
e|-------------------------------------------------------------------------|
B|-------------------------------------------------------------------------|
G|-------------------------------------------------------------------------|
D|-8-888-4-6-666666-6-666-4-8-888888-8-888-4-6-666666-6-666666-11-10-9-8---|
A|-8-888-4-6-666666-6-666-4-8-888888-8-888-4-6-666666-6-666666-11-10-9-8---|
E|-6-666-2-4-444444-4-444-2-6-666666-6-666-2-4-444444-4-444444--9--8-7-6---|

e|-------------------------------------------------------------------------|
B|-------------------------------------------------------------------------|
G|-------------------------------------------------------------------------|
D|-4-444-4-6-666666-6-666-4-8-888888-8-888-4-6-666666-6-666666-11-10-9-8---|
A|-4-444-4-6-666666-6-666-4-8-888888-8-888-4-6-666666-6-666666-11-10-9-8---|
E|-2-222-2-4-444444-4-444-2-6-666666-6-666-2-4-444444-4-444444--9--8-7-6---|

e|---------------------------|----|-18---|
B|--6------6----6---6---6----|----|--18--|
G|---6------6----6---6-6-6-6-|----|---18-|
D|-8--8-6-6--6-4--4----------|-8~-|------|
A|-----------------6---------|----|------|
E|---------------------------|----|------|

Verse 2
e|-------------------------------------|----------------------------|------|
B|-------------------------------------|----------------------------|------|
G|-------------------------------------|----------------------------|------|
D|-8-888888-6-666666-4-444444-2-222222-|-8-888888-6-666666-4-444444-|-2----|
A|-8-888888-6-666666-4-444444-2-222222-|-8-888888-6-666666-4-444444-|-2-x14|
E|-6-666666-4-444444-2-222222-0-000000-|-6-666666-4-444444-2-222222-|-0----|
   . ...... . ...... . ...... . ......   .
Chorus
e|-------------------------------------------------------------------------|
B|-------------------------------------------------------------------------|
G|-------------------------------------------------------------------------|
D|-8-888-4-6-666666-6-666-4-8-888888-8-888-4-6-666666-6-666666-11-10-9-8---|
A|-8-888-4-6-666666-6-666-4-8-888888-8-888-4-6-666666-6-666666-11-10-9-8---|
E|-6-666-2-4-444444-4-444-2-6-666666-6-666-2-4-444444-4-444444--9--8-7-6---|

e|-------------------------------------------------------------------------|
B|-------------------------------------------------------------------------|
G|-------------------------------------------------------------------------|
D|-4-444-4-6-666666-6-666-4-8-888888-8-888-4-6-666666-6-666666-11-10-9-8---|
A|-4-444-4-6-666666-6-666-4-8-888888-8-888-4-6-666666-6-666666-11-10-9-8---|
E|-2-222-2-4-444444-4-444-2-6-666666-6-666-2-4-444444-4-444444--9--8-7-6---|

Solo 1
e|---------------------------------11--11--11--13--13--13-->
B|---14--14-14--14--14--14-14--14-------------------------->
G|-10--10-----10--10--10-----10--11--11--11--11--11--11---->
D|--------------------------------------------------------->
A|--------------------------------------------------------->
E|--------------------------------------------------------->

e|---13--13--13--13--13--13--13--13--13--13----|
B|---------------------------------------------|
G|---------------------------------------------|
D|-11--11--11--11--11--11--10--10--10--10--10--|
A|---------------------------------------------|
E|---------------------------------------------|

e|---------------------------------11--11--11--13--13--13-->
B|---14--14-14--14--14--14-14--14-------------------------->
G|-10--10-----10--10--10-----10--11--11--11--11--11--11---->
D|--------------------------------------------------------->
A|--------------------------------------------------------->
E|--------------------------------------------------------->
    .   .      .   .   .      .   .   .   .   .   .   .

e|---13--13--13--13--13--13--13--13--13--13----|
B|---------------------------------------------|
G|---------------------------------------------|
D|-11--11--11--11--11--11--10--10--10--10--10--|
A|---------------------------------------------|
E|---------------------------------------------|
    .   .   .   .   .   .   .   .   .   .   .
Fill
e|---------------------|--|----------------------------|----|
B|---------------------|--|----------------------------|----|
G|-3-------------------|--|-3--------------------------|----|
D|-3-2-3-4--2-3-4-5--5-|x2|-3-2-3-4-4444-2-3-4-5--5555-|-x2-|
A|-1-2-3-4--2-3-4-5--5-|--|-1-2-3-4-4444-2-3-4-5--5555-|----|
E|---0-1-2--0-1-2-3--3-|--|---0-1-2-2222-0-1-2-3--3333-|----|
                                               ^2nd time end on this chord
Solo 2
e|-------------------------------------------------------------------------|
B|-------------------------7--6-------------66--77--66---6--6--66--6--6----|
G|-6p5---5-6---5-5-6-6-6-6-------6--5---66---------------6--6--66--6--6----|
D|----8-8---8-8-------------88-88-88-88---88--88--88--88-8-88-888-88-88----|
A|-------------------------------------------------------------------------|
E|-------------------------------------------------------------------------|

Outro
e|---------------------------|-------------------------------|
B|--6------6----6---6---6----|--6------6-7p6---6---6---6-----|
G|---6------6----6---6-6-6-6-|---6----------6---6---6-6-6-6--|
D|-8--8-6-6--6-4--4----------|-8--8-6-6-------4--4-----------|
A|-----------------6---------|--------------------6----------|
E|---------------------------|-------------------------------|

e|-------------------------------------------------------------------------|
B|-------------------------------------------------------------------------|
G|-------------------------------------------------------------------------|
D|-4-444-4-6-666666-6-666-4-8-888888-8-888-4-6-666666-6-666666-11-10-9-8---|
A|-4-444-4-6-666666-6-666-4-8-888888-8-888-4-6-666666-6-666666-11-10-9-8---|
E|-2-222-2-4-444444-4-444-2-6-666666-6-666-2-4-444444-4-444444--9--8-7-6---|

e|-------------------------------------------------------------------------|
B|-------------------------------------------------------------------------|
G|-------------------------------------------------------------------------|
D|-8-888-4-6-666666-6-666-4-8-888888-8-888-4-6-666666-6-666666-11-10-9-8---|
A|-8-888-4-6-666666-6-666-4-8-888888-8-888-4-6-666666-6-666666-11-10-9-8---|
E|-6-666-2-4-444444-4-444-2-6-666666-6-666-2-4-444444-4-444444--9--8-7-6---|

e|-------------------------------------------------------------------------|
B|-------------------------------------------------------------------------|
G|-------------------------------------------------------------------------|
D|-4-444-4-6-666666-6-666-4-8-888888-8-888-4-6-666666-6-666666-11-10-9-8-8\|
A|-4-444-4-6-666666-6-666-4-8-888888-8-888-4-6-666666-6-666666-11-10-9-8-8\|
E|-2-222-2-4-444444-4-444-2-6-666666-6-666-2-4-444444-4-444444--9--8-7-6-6\|

Legend:
| p     pull off
| h     hammer on
| /     slide up
| \     slide down
| b     bend note
| br    release bent note
| +     natural harmonic
| *     pinch harmonic
| .     palm mute
| ~     let note ring
| |x#|  repeat last measure indicated # of times
| >     continues on next staff
============================================================================
Tap to rate this tab
 
# A B C D E F G H I J K L M N O P Q R S T U V W X Y Z