Song name
# A B C D E F G H I J K L M N O P Q R S T U V W X Y Z

Afi - The Living Song tab

Help us improve GuitareTab! Take a short survey!
the living song part. 1 tab by  AFI


|-----14-13-----13----------18----|
|-----------14----14----14--------|
|--------------------15-----------|x3
|-13------------------------------|
|---------------------------------|
|---------------------------------|

|-----14-13-----13---------16-18----14-|
|-----------14----14----14-------14----|
|--------------------15----------------|
|-13-----------------------------------|
|--------------------------------------|
|--------------------------------------|

|-16---13-14-13--------11-------|
|-------------------------------|
|-------------------------------|
|-------------------------------|
|-------------------------------|
|-------------------------------|

|------------------------------------------|
|------------------------------------------|
|------------------------------------------|
|-4---3---1---1-1-1------4---3---1---1-1-1-|
|------------------------------------------|
|---0---0-----------0-0----0---0-----------|

|-------------------------------------|
|-------------------------------------|
|-------------------------------------|
|-----4---6/8------------------6-6-6--|
|--------------6--6-6-6---6-6--4-6-6--|
|-0-0---0------0--0-0-0---0-0--0-0-0--|

|----------------------|
|----------------------|
|----------------------|
|-4---6-6---11---11-11-|
|-6h6-6-6---9h11-11-11-|
|-0---0-0---0----0--0--|

|------------------------------------------|
|------------------------------------------|
|------------------------------------------|
|-4---3---1---1-1-1------4---3---1---1-1-1-|
|------------------------------------------|
|---0---0-----------0-0----0---0-----------|

|-------------------------------------|
|-------------------------------------|
|-------------------------------------|
|-----4---6/8------------------6-6-6--|
|--------------6--6-6-6---6-6--4-6-6--|
|-0-0---0------0--0-0-0---0-0--0-0-0--|







|--------------------------|
|--------------------------|
|--------------------------|
|-4---6-6---11---11-11--8--|
|-6h6-6-6---9h11-11-11--6--|
|-0---0-0---0----0--0---0--|

|-11-11-11-14-14-14-13-13-13-9-9-9-13-13-11-11-11--|
|--------------------------------------------------|
|--------------------------------------------------|
|--------------------------------------------------|
|--------------------------------------------------|
|--------------------------------------------------|

|-11-11-11-14-14-14-13-13-13-9-9-9-13-13-11---11---11---|
|-------------------------------------------------------|
|-------------------------------------------8----8----8-|
|-------------------------------------------------------|
|-------------------------------------------------------|
|-------------------------------------------------------|

|-11-------14-------13-------9-------13---11----|
|-----------------------------------------------|
|----8-8-8----8-8-8----8-8-8---8-8-8----8----8--|
|-----------------------------------------------|
|-----------------------------------------------|
|-----------------------------------------------|

|-11-11-11-14-14-14-13\---|
|-11-11-11-14-14-14-14\---|
|-------------------------|
|-------------------------|
|-------------------------|
|-------------------------|

Related for The Living Song tab