Song name
# A B C D E F G H I J K L M N O P Q R S T U V W X Y Z

Afi - Fog tab

afi
fog
standard tuning

keyboard arranged for guitar (00:00)
e|---------|
A|-----0---|
D|---7-----|
G|-(x16)---|
B|---------|
E|---------|

(00:10)
e|-------------------|
A|-----0----0----0---|
D|---7---12---10-----|
G|-(x4)-(x4)-(x8)----|
B|-------------------|
E|-------------------|

(00:20)
e|-----------------------|
A|-----0----0----0---0---|
D|---7---12---10---5-----|  this is repeated through out the whole song
G|-(x4)-(x4)-(x4)-(x4)---|
B|-----------------------|
E|-----------------------| 

guitar (distortion, reverb)(00:40)
e|---------------------------------------------|
A|---------------------------------------------|
D|---------------------------------------------|
G|---------------------------------------------| repeat this one more time
B|-------------------12b--10--12*----12--13*---| later in the song at (01:51)
E|---12b--10\8--8*-----------------------------|

(x_) - number of times you play it
b    - bend note
\_   - slide down to note
*    - hold note

Tabbed by Nick
Tap to rate this tab
# A B C D E F G H I J K L M N O P Q R S T U V W X Y Z