Song name
# A B C D E F G H I J K L M N O P Q R S T U V W X Y Z

Afi - Rabbits Are Roadkill On Route37 tab

                       Rabbits Are Roadkill on Route 37                         


                                                                          AFI
Guitarist = Jade Puget.
Tabbed by= Joe Shanks (solidsnake11_2@hotmail.com)
Please Rate!!




                            NH    NH    NH                               
      W                     E.    E.    Q.     Q       W                 
D#||-------------------|--<>7-----------------------|-------------------|
A#||-------------------|--------<>7-----------------|-------------------|
F#||-------------------|--------------<>7------L----|--L----------------|
C#||-------------------|----------------------------|-------------------|
G#||-------------------|----------------------------|-------------------|
D#||-------------------|----------------------------|-------------------|


    NH    NH    NH                                   NH    NH    NH             
    E.    E.    Q.     Q       W                     E.    E.    Q.     E  S S  
--<>7---------<>7------L----|--L----------------|--<>7------------------x--x-x-|
--------<>7-----------------|-------------------|--------<>7------------x--x-x-|
----------------------------|-------------------|--------------<>7------x--x-x-|
----------------------------|-------------------|-----------------------x--x-x-|
----------------------------|-------------------|-----------------------x--x-x-|
----------------------------|-------------------|-----------------------x--x-x-|


  S S S S E.  E  S S S E.  S    S S S S E.  S S S S S S S E   
-----------------------------|-------------------------------|
------7-7----------7-7-------|------7-7---------7-----7------|
----------7------------7---7-|----------7---------7-----7----|
--9-9---------7--7-----------|--5-5---------7-7-----7-----7--|
-----------------------------|-------------------------------|
-----------------------------|-------------------------------|


  S S S S E.  E  S S S   S  S E     S S S S E.  S S S S S S S E   
---------------------------------|-------------------------------|
------7-7----------7-7h-10p-7----|------7-7---------7-----7------|
----------7-------------------7--|----------7---------7-----7----|
--9-9---------7--7---------------|--5-5---------7-7-----7-----7--|
---------------------------------|-------------------------------|
---------------------------------|-------------------------------|


  PM PM PM PM         PM PM PM PM          
  S  S  S  S  S S S S S  S  S  S  S S S S  
------------------------------------------|
--------------7-L-L---------------7-L-L---|
----------------7-7-L---------------7-7-L-|
--9--9--9--9--------9-7--7--7--7--------9-|
--9--9--9--9----------7--7--7--7----------|
--7--7--7--7----------5--5--5--5----------|


  PM PM PM PM         PM PM PM PM PM PM PM PM  
  S  S  S  S  S S S S S  S  S  S  S  S  S  S   
----------------------------------------------|
--------------7-L-L---------------------------|
----------------7-7-L-------------------------|
--5--5--5--5--------9-2--2--2--2--2--2--2--2--|
--5--5--5--5----------2--2--2--2--2--2--2--2--|
--3--3--3--3----------0--0--0--0--0--0--0--0--|


  PM PM PM PM         PM PM PM PM          
  S  S  S  S  S S S S S  S  S  S  S S S S  
------------------------------------------|
--------------7-L-L---------------7-L-L---|
----------------7-7-L---------------7-7-L-|
--9--9--9--9--------9-7--7--7--7--------9-|
--9--9--9--9----------7--7--7--7----------|
--7--7--7--7----------5--5--5--5----------|


  PM PM PM PM                 PM PM PM PM  
  S  S  S  S  S S S S S S S S S  S  S  S   
------------------------------------------|
--------------7-L-L-----------------------|
----------------7-7-L---------------------|
--5--5--5--5--------9-2-2-2-2-7--7--7--7--|
--5--5--5--5----------2-2-2-2-7--7--7--7--|
--3--3--3--3----------0-0-0-0-5--5--5--5--|


    PM PM PM PM PM PM PM PM PM PM PM PM PM PM PM  
  S S  S  S  S  S  S  S  S  S  S  S  S  S  S  S   
-------------------------------------------------|
-------------------------------------------------|
-------------------------------------------------|
--9-9--9--9--9--9--9--9--7--7--7--7--7--7--7--7--|
--9-9--9--9--9--9--9--9--7--7--7--7--7--7--7--7--|
--7-7--7--7--7--7--7--7--5--5--5--5--5--5--5--5--|


  PM PM PM PM PM PM PM PM PM PM PM PM PM PM PM PM  
  S  S  S  S  S  S  S  S  S  S  S  S  S  S  S  S   
--------------------------------------------------|
--------------------------------------------------|
--------------------------------------------------|
--5--5--5--5--5--5--5--5--2--2--2--2--2--2--2--2--|
--5--5--5--5--5--5--5--5--2--2--2--2--2--2--2--2--|
--3--3--3--3--3--3--3--3--0--0--0--0--0--0--0--0--|


  PM PM PM PM                                                                   
  S  S  S  S  S S S S S S S S S S S S    S S S S S S S S H           Q.     E   
--------------------------------------|----------3-3-3-3-0--------|--L------L--|
--------------------------------------|--3-3-3-3-3-3-3-3-0--------|--L------L--|
----------------------6-6-6-6-6-6-6-6-|--4-4-4-4-4-4-4-4-0--------|--L------L--|
--9--9--9--9--9-9-9-9-7-7-7-7-7-7-7-7-|--5-5-5-5-5-5-5-5-2--------|--L------L--|
--9--9--9--9--9-9-9-9-7-7-7-7-7-7-7-7-|--5-5-5-5-5-5-5-5-2--------|--L------L--|
--7--7--7--7--7-7-7-7-5-5-5-5-5-5-5-5-|--3-3-3-3-3-3-3-3-0--------|--L------L--|


  E  E  E  S E  S E  E  S S    E  E  E  S E  S E  E  S S  
--7--7--7--3-5--5-5--5--5-3-|--5--5--5--3-7--7-7--7--7-3-|
--7--7--7--3-5--5-5--5--5-3-|--5--5--5--3-7--7-7--7--7-3-|
--8--8--8--4-6--6-6--6--6-4-|--6--6--6--4-8--8-8--8--8-4-|
--9--9--9--5-7--7-7--7--7-5-|--7--7--7--5-9--9-9--9--9-5-|
--9--9--9--5-7--7-7--7--7-5-|--7--7--7--5-9--9-9--9--9-5-|
--7--7--7--3-5--5-5--5--5-3-|--5--5--5--3-7--7-7--7--7-3-|


  E  E  E  S E  S E  E  S S    E  E  E  S S  E   E  E  E   
--7--7--7--3-5--5-5--5--5-3-|--5--5--5--5-5-10---9--7--5--|
--7--7--7--3-5--5-5--5--5-3-|--5--5--5--5-5-10---9--7--5--|
--8--8--8--4-6--6-6--6--6-4-|--6--6--6--6-6-11--10--8--6--|
--9--9--9--5-7--7-7--7--7-5-|--7--7--7--7-7-12--11--9--7--|
--9--9--9--5-7--7-7--7--7-5-|--7--7--7--7-7-12--11--9--7--|
--7--7--7--3-5--5-5--5--5-3-|--5--5--5--5-5-10---9--7--5--|


  E  E  E  S E  S E  E  S S    E  E  E  S E  S E  E  S S  
--3--3--3--3-5--5-5--5--5-3-|--5--5--5--3-7--7-7--7--7-3-|
--3--3--3--3-5--5-5--5--5-3-|--5--5--5--3-7--7-7--7--7-3-|
--4--4--4--4-6--6-6--6--6-4-|--6--6--6--4-8--8-8--8--8-4-|
--5--5--5--5-7--7-7--7--7-5-|--7--7--7--5-9--9-9--9--9-5-|
--5--5--5--5-7--7-7--7--7-5-|--7--7--7--5-9--9-9--9--9-5-|
--3--3--3--3-5--5-5--5--5-3-|--5--5--5--3-7--7-7--7--7-3-|


  E  E  E  S E  S E  E  S S    E  E  E  S S  E   E  E  E   
--7--7--7--3-5--5-5--5--5-3-|--5--5--5--5-5-10---9--7--5--|
--7--7--7--3-5--5-5--5--5-3-|--5--5--5--5-5-10---9--7--5--|
--8--8--8--4-6--6-6--6--6-4-|--6--6--6--6-6-11--10--8--6--|
--9--9--9--5-7--7-7--7--7-5-|--7--7--7--7-7-12--11--9--7--|
--9--9--9--5-7--7-7--7--7-5-|--7--7--7--7-7-12--11--9--7--|
--7--7--7--3-5--5-5--5--5-3-|--5--5--5--5-5-10---9--7--5--|


  S S S S E.  E  S S S E.  S    S S S S E.  S S S S S S S E   
-----------------------------|-------------------------------|
------7-7----------7-7-------|------7-7---------7-----7------|
----------7------------7---7-|----------7---------7-----7----|
--9-9---------7--7-----------|--5-5---------7-7-----7-----7--|
-----------------------------|-------------------------------|
-----------------------------|-------------------------------|


  S S S S E.  E  S S S   S  S E     S S S S E.  S S S S S S S E   
---------------------------------|-------------------------------|
------7-7----------7-7h-10p-7----|------7-7---------7-----7------|
----------7-------------------7--|----------7---------7-----7----|
--9-9---------7--7---------------|--5-5---------7-7-----7-----7--|
---------------------------------|-------------------------------|
---------------------------------|-------------------------------|


  W                   W                   W                 
-------------------|-------------------|-------------------|
-------------------|-------------------|-------------------|
-------------------|-------------------|-------------------|
--9----------------|--L----------------|--L----------------|
-------------------|-------------------|-------------------|
-------------------|-------------------|-------------------|


    NH    NH    NH     PM PM PM PM  
    E.    E.    Q.     S  S  S  S   
--<>7------------------------------|
--------<>7------------------------|
--------------<>7------------------|
-----------------------7--7--7--7--|
-----------------------7--7--7--7--|
-----------------------5--5--5--5--|


    PM PM PM PM PM PM PM PM PM PM PM PM PM PM PM  
  S S  S  S  S  S  S  S  S  S  S  S  S  S  S  S   
-------------------------------------------------|
-------------------------------------------------|
-------------------------------------------------|
--9-9--9--9--9--9--9--9--7--7--7--7--7--7--7--7--|
--9-9--9--9--9--9--9--9--7--7--7--7--7--7--7--7--|
--7-7--7--7--7--7--7--7--5--5--5--5--5--5--5--5--|


  PM PM PM PM PM PM PM PM PM PM PM PM PM PM PM PM  
  S  S  S  S  S  S  S  S  S  S  S  S  S  S  S  S   
--------------------------------------------------|
--------------------------------------------------|
--------------------------------------------------|
--5--5--5--5--5--5--5--5--2--2--2--2--2--2--2--2--|
--5--5--5--5--5--5--5--5--2--2--2--2--2--2--2--2--|
--3--3--3--3--3--3--3--3--0--0--0--0--0--0--0--0--|


  PM PM PM PM                                                         
  S  S  S  S  S S S S S S S S S S S S    S S S S S S S S E  E  E  E   
--------------------------------------|----------3-3-3-3-0-----------|
--------------------------------------|--3-3-3-3-3-3-3-3-0-----------|
----------------------6-6-6-6-6-6-6-6-|--4-4-4-4-4-4-4-4-0--9--9--9--|
--9--9--9--9--9-9-9-9-7-7-7-7-7-7-7-7-|--5-5-5-5-5-5-5-5-2--9--9--9--|
--9--9--9--9--9-9-9-9-7-7-7-7-7-7-7-7-|--5-5-5-5-5-5-5-5-2--7--7--7--|
--7--7--7--7--7-7-7-7-5-5-5-5-5-5-5-5-|--3-3-3-3-3-3-3-3-0-----------|


  E  E  E  E     E  E  E  S E  S E  E  S S    E  E  E  S E  S E  E  S S  
--------------|--7--7--7--3-5--5-5--5--5-3-|--5--5--5--3-7--7-7--7--7-3-|
--------------|--7--7--7--3-5--5-5--5--5-3-|--5--5--5--3-7--7-7--7--7-3-|
--9--9--9--9--|--8--8--8--4-6--6-6--6--6-4-|--6--6--6--4-8--8-8--8--8-4-|
--9--9--9--9--|--9--9--9--5-7--7-7--7--7-5-|--7--7--7--5-9--9-9--9--9-5-|
--7--7--7--7--|--9--9--9--5-7--7-7--7--7-5-|--7--7--7--5-9--9-9--9--9-5-|
--------------|--7--7--7--3-5--5-5--5--5-3-|--5--5--5--3-7--7-7--7--7-3-|


  E  E  E  S E  S E  E  S S    E  E  E  S S  E   E  E  E   
--7--7--7--3-5--5-5--5--5-3-|--5--5--5--5-5-10---9--7--5--|
--7--7--7--3-5--5-5--5--5-3-|--5--5--5--5-5-10---9--7--5--|
--8--8--8--4-6--6-6--6--6-4-|--6--6--6--6-6-11--10--8--6--|
--9--9--9--5-7--7-7--7--7-5-|--7--7--7--7-7-12--11--9--7--|
--9--9--9--5-7--7-7--7--7-5-|--7--7--7--7-7-12--11--9--7--|
--7--7--7--3-5--5-5--5--5-3-|--5--5--5--5-5-10---9--7--5--|


  E  E  E  S E  S E  E  S S    E  E  E  S E  S E  E  S S  
--3--3--3--3-5--5-5--5--5-3-|--5--5--5--3-7--7-7--7--7-3-|
--3--3--3--3-5--5-5--5--5-3-|--5--5--5--3-7--7-7--7--7-3-|
--4--4--4--4-6--6-6--6--6-4-|--6--6--6--4-8--8-8--8--8-4-|
--5--5--5--5-7--7-7--7--7-5-|--7--7--7--5-9--9-9--9--9-5-|
--5--5--5--5-7--7-7--7--7-5-|--7--7--7--5-9--9-9--9--9-5-|
--3--3--3--3-5--5-5--5--5-3-|--5--5--5--3-7--7-7--7--7-3-|


  E  E  E  S E  S E  E  S S    E  E  E  S S  E   E  E  E   
--7--7--7--3-5--5-5--5--5-3-|--5--5--5--5-5-10---9--7--5--|
--7--7--7--3-5--5-5--5--5-3-|--5--5--5--5-5-10---9--7--5--|
--8--8--8--4-6--6-6--6--6-4-|--6--6--6--6-6-11--10--8--6--|
--9--9--9--5-7--7-7--7--7-5-|--7--7--7--7-7-12--11--9--7--|
--9--9--9--5-7--7-7--7--7-5-|--7--7--7--7-7-12--11--9--7--|
--7--7--7--3-5--5-5--5--5-3-|--5--5--5--5-5-10---9--7--5--|


  S E  S E  E  S E  S E  E     S  E  S  E  E   S  E   S  E   E   
----7----7-------6----6-----|----12----12--------14-----14------|
--9----9----9--9----9----9--|--9-----9-----9--12-----12-----12--|
----------------------------|-----------------------------------|
----------------------------|-----------------------------------|
----------------------------|-----------------------------------|
----------------------------|-----------------------------------|


   S  E   S  E   S  E   S  E   S  E   S     E   S  E   S  E   S  E   S  E   E   
-----14-----14-----14-----14-----14-----|--14-----14-----14-----14-----14------|
--12-----12-----12-----12-----12-----12-|------12-----12-----12-----12-----12--|
----------------------------------------|--------------------------------------|
----------------------------------------|--------------------------------------|
----------------------------------------|--------------------------------------|
----------------------------------------|--------------------------------------|


  PM PM PM PM PM PM PM PM PM PM    PM  PM PM  PM PM  PM PM  PM PM  PM  
  S  E  S  E  E  S  E  S  E  E     S   E  S   E  E   S  E   S  E   E   
-----7-----7--------6-----6-----|-----12-----12--------14-----14------|
--9-----9-----9--9-----9-----9--|--9------9------9--12-----12-----12--|
--------------------------------|-------------------------------------|
--------------------------------|-------------------------------------|
--------------------------------|-------------------------------------|
--------------------------------|-------------------------------------|


   PM PM  PM PM  PM PM  PM PM  PM PM  PM    PM  PM                              
   S  E   S  E   S  E   S  E   S  E   S     E   S  E   S  E   S  E   S  E   E   
-----14-----14-----14-----14-----14-----|--14-----14-----14-----14-----14------|
--12-----12-----12-----12-----12-----12-|------12-----12-----12-----12-----12--|
----------------------------------------|--------------------------------------|
----------------------------------------|--------------------------------------|
----------------------------------------|--------------------------------------|
----------------------------------------|--------------------------------------|


  E.  E  E  E  Q.     S    E  E  E  E  Q.     E     E.  E  E  E  Q.     S  
------------------------|------------------------|------------------------|
------------------------|------------------------|------------------------|
------------------------|------------------------|------------------------|
--9---2--4--5-----------|--2--4--5--7---------7--|--9---2--4--5-----------|
--9---2--4--5-----------|--2--4--5--7---------7--|--9---2--4--5-----------|
--7---0--2--3-----------|--0--2--3--5---------5--|--7---0--2--3-----------|


  E  E  E  E  Q.      E      E.  E  E  E  Q.     S    E  E  E  E  Q.     E   
--------------------------|------------------------|------------------------|
--------------------------|------------------------|------------------------|
--------------------------|------------------------|------------------------|
--2--4--5--7---------16\--|--9---2--4--5--L------L-|--2--4--5--7--L------7--|
--2--4--5--7---------16\--|--9---2--4--5--L------L-|--2--4--5--7--L------7--|
--0--2--3--5---------14\--|--7---0--2--3--L------L-|--0--2--3--5--L------5--|


  E.  E  E  E  Q.     S    E  E  E  E  Q.     E   
------------------------|------------------------|
------------------------|------------------------|
------------------------|------------------------|
--9---2--4--5--L------L-|--2--4--5--7------------|
--9---2--4--5--L------L-|--2--4--5--7------------|
--7---0--2--3--L------L-|--0--2--3--5------------|


  S  S S E  S S S S S S S E  E     E  S S E  S S E  S S Q      
--------------------------------|-----------------------------|
--------------------------------|--8------7-------------------|
--7p-6-7-4--4-4-6-6-7-7-7-7--9--|-----0-0----0-0-9--0-0-7\----|
--------------------------------|-----------------------------|
--------------------------------|-----------------------------|
--------------------------------|-----------------------------|


  S S S S  S  S S S  S  S S S  S  S S S  
----------------------------------------|
----------------------------------------|
--7-7-0-0-11-11-0-0-12-12-0-0-11-11-0-0-|
----------------------------------------|
----------------------------------------|
----------------------------------------|


  S S S S S S S S  S  S S S  S  S  S  S    S S S S E.  E  S S S E.  S  
----------------------------------------|-----------------------------|
----------------------------------------|------7-7----------7-7-------|
--7-7-7-7-7-7-9-9-11-11-9-9-11-11-12-12-|----------7------------7---7-|
--x-x-x-x-x-x-x-x--x--x-x-x--x--x--x--x-|--9-9---------7--7-----------|
--5-5-5-5-5-5-7-7--9--9-7-7--9--9-10-10-|-----------------------------|
----------------------------------------|-----------------------------|


  S S S S E.  S S S S S S S E     S S S S E.  E  S S S   S  S E   
-------------------------------|---------------------------------|
------7-7---------7-----7------|------7-7----------7-7h-10p-7----|
----------7---------7-----7----|----------7-------------------7--|
--5-5---------7-7-----7-----7--|--9-9---------7--7---------------|
-------------------------------|---------------------------------|
-------------------------------|---------------------------------|


  S S S S E.  S S S S S S S E     E  E  E  S E  S E  E  S S  
-------------------------------|--3--3--3--3-5--5-5--5--5-3-|
------7-7---------7-----7------|--3--3--3--3-5--5-5--5--5-3-|
----------7---------7-----7----|--4--4--4--4-6--6-6--6--6-4-|
--5-5---------7-7-----7-----7--|--5--5--5--5-7--7-7--7--7-5-|
-------------------------------|--5--5--5--5-7--7-7--7--7-5-|
-------------------------------|--3--3--3--3-5--5-5--5--5-3-|


  E  E  E  S E  S E  E  S S    E  E  E  S E  S E  E  S S  
--5--5--5--3-7--7-7--7--7-3-|--7--7--7--3-5--5-5--5--5-3-|
--5--5--5--3-7--7-7--7--7-3-|--7--7--7--3-5--5-5--5--5-3-|
--6--6--6--4-8--8-8--8--8-4-|--8--8--8--4-6--6-6--6--6-4-|
--7--7--7--5-9--9-9--9--9-5-|--9--9--9--5-7--7-7--7--7-5-|
--7--7--7--5-9--9-9--9--9-5-|--9--9--9--5-7--7-7--7--7-5-|
--5--5--5--3-7--7-7--7--7-3-|--7--7--7--3-5--5-5--5--5-3-|


  E  E  E  S S  E   E  E  E     E  E  E  S E  S E  E  S S  
--5--5--5--5-5-10---9--7--5--|--7--7--7--3-5--5-5--5--5-3-|
--5--5--5--5-5-10---9--7--5--|--7--7--7--3-5--5-5--5--5-3-|
--6--6--6--6-6-11--10--8--6--|--8--8--8--4-6--6-6--6--6-4-|
--7--7--7--7-7-12--11--9--7--|--9--9--9--5-7--7-7--7--7-5-|
--7--7--7--7-7-12--11--9--7--|--9--9--9--5-7--7-7--7--7-5-|
--5--5--5--5-5-10---9--7--5--|--7--7--7--3-5--5-5--5--5-3-|


  E  E  E  S E  S E  E  S S    E  E  E  S E  S E  E  S S  
--5--5--5--3-7--7-7--7--7-3-|--7--7--7--3-5--5-5--5--5-3-|
--5--5--5--3-7--7-7--7--7-3-|--7--7--7--3-5--5-5--5--5-3-|
--6--6--6--4-8--8-8--8--8-4-|--8--8--8--4-6--6-6--6--6-4-|
--7--7--7--5-9--9-9--9--9-5-|--9--9--9--5-7--7-7--7--7-5-|
--7--7--7--5-9--9-9--9--9-5-|--9--9--9--5-7--7-7--7--7-5-|
--5--5--5--3-7--7-7--7--7-3-|--7--7--7--3-5--5-5--5--5-3-|


  E  E  E  S S  E   E  E  E     E  E  E  S E  S E  E  S S  
--5--5--5--5-5-10---9--7--5--|--3--3--3--3-5--5-5--5--5-3-|
--5--5--5--5-5-10---9--7--5--|--3--3--3--3-5--5-5--5--5-3-|
--6--6--6--6-6-11--10--8--6--|--4--4--4--4-6--6-6--6--6-4-|
--7--7--7--7-7-12--11--9--7--|--5--5--5--5-7--7-7--7--7-5-|
--7--7--7--7-7-12--11--9--7--|--5--5--5--5-7--7-7--7--7-5-|
--5--5--5--5-5-10---9--7--5--|--3--3--3--3-5--5-5--5--5-3-|


  E  E  E  S E  S E  E  S S    E  E  E  S E  S E  E  S S  
--5--5--5--3-7--7-7--7--7-3-|--7--7--7--3-5--5-5--5--5-3-|
--5--5--5--3-7--7-7--7--7-3-|--7--7--7--3-5--5-5--5--5-3-|
--6--6--6--4-8--8-8--8--8-4-|--8--8--8--4-6--6-6--6--6-4-|
--7--7--7--5-9--9-9--9--9-5-|--9--9--9--5-7--7-7--7--7-5-|
--7--7--7--5-9--9-9--9--9-5-|--9--9--9--5-7--7-7--7--7-5-|
--5--5--5--3-7--7-7--7--7-3-|--7--7--7--3-5--5-5--5--5-3-|


  E  E  E  S S  E   E  E  E     E   H.           E    
--5--5--5--5-5-10---9--7--5--|--7\------------------||
--5--5--5--5-5-10---9--7--5--|--7\------------------||
--6--6--6--6-6-11--10--8--6--|--8\------------------||
--7--7--7--7-7-12--11--9--7--|--9\------------------||
--7--7--7--7-7-12--11--9--7--|--9\------------------||
--5--5--5--5-5-10---9--7--5--|--7\------------------||




Duration Legend
---------------
W - whole
H - half
Q - quarter
E - 8th
S - 16th
T - 32nd
X - 64th
. - note dotted
|-n-|  - n-tuplets


Tablature Legend
----------------
L - tied note
x - dead note
g - grace note
(n) - ghost note
> - accentuded note
NH - natural harmonic
AH - artificial harmonic
TH - tapped harmonic
SH - semi harmonic
PH - pitch harmonic
h - hammer on
p - pull off
b - bend
br - bendRelease
pb - preBend
pbr - preBendRelease
brb - bendReleaseBend
\n/ - tremolo bar dip
\n - tremolo bar dive
-/n - tremolo bar Release up
/n\ - tremolo bar inverted dip
/n - tremolo bar return
-\n - tremolo bar Release down
S - shift slide
s - legato slide
/ -  slide into from below or out of upwards
\ -  slide into from above or out of downwards
~ - vibrato
W - wide vibrato
tr - trill
TP - tremolo picking
T - tapping
S - slap
P - pop
< - fade in
^ - brush up
v - brush down
Tap to rate this tab
# A B C D E F G H I J K L M N O P Q R S T U V W X Y Z