Song name
# A B C D E F G H I J K L M N O P Q R S T U V W X Y Z

Afi - Dont Make Me Ill tab

Help us improve GuitareTab! Take a short survey!
Intro:
repeat  3x
e|------------------------------------------------------------------|
b|------------------------------------------------------------------|
g|------------------------------------------------------------------|
d|-12--12--12--12--5--5--5--5--5--7--7--7--7------------------------|
a|-12--12--12--12--5--5--5--5--5--7--7--7--7------------------------|
e|-10--10--10--10--3--3--3--3--3--5--5--5--5------------------------|

      then.....
e|------------------------------------------------------------------|
b|------------------------------------------------------------------|
g|------------------------------------------------------------------|
d|---5--5--5--5--7--7--7--7\6/7--7----------------------------------|
a|---5--5--5--5--7--7--7--7\6/7--7----------------------------------|
e|---3--3--3--3--5--5--5--5\4/5--5----------------------------------|

verse
e|------------------------------------------------------------------
b|------------------------------------------------------------------
g|------------------------------------------------------------------
d|--12--12--12--12--7--7--7--7--5--5--5--5--------------------------
a|--12--12--12--12--7--7--7--7--5--5--5--5--------------------------
e|--10--10--10--10--5--5--5--5--3--3--3--3--------------------------

then play "then"

"no one.." "no ones gonna tell me.."

e|------------------------------------------------------------------
b|------------------------------------------------------------------
g|------------------------------------------------------------------
d|--12--12--12--12--5--5--5--5--7--7--7--7--5--5--5--5--------------
a|--12--12--12--12--5--5--5--5--7--7--7--7--5--5--5--5--------------
e|--10--10--10--10--3--3--3--3--5--5--5--5--3--3--3--3--------------

solo
          1                  2                              3
   ------------------  ----------------------   --------------------
e|---------------|-----------------|-----------p--------------------|
b|---------------|-----------------|-----------a--------------------|
g|---------------|---------6-9-7-6-|-----------u------6-9-7---------|
d|--------4-7-5-4|---7-7-----------|--7-7------s--------------------|
a|--5-5----------|-----------------|-----------e--------------------|
e|---------------|-----------------|--------------------------------|

structure: 1  2  1  3
Related for Dont Make Me Ill tab