Song name
# A B C D E F G H I J K L M N O P Q R S T U V W X Y Z

Afi - Yurf Rendenmein tab

Yurf Rendenmein
AFI - Very Proud of Ya

Intro
|------------------------------------|
|------------------------------------|
|-------------------5-8-7-5-5-8-7----|
|5~-5-8-----5-8-----5-8-8-6-5-8-8----|
|3~-3-6-8-6-3-6-8-6-3-6-8-6-3-6-8-6--|
|-------6-4-----6-4-----6-4-----6-4--|
pm                .

Verse 
|----------------------------|
|----------------------------|
|---------5-5-7-5-5-5-7------|
|-5---5-8-5-6-8-6-5-6-8-8----|
|-3-6-3-6-3-6-8-6-3-6-8-6----|
|---4-------4-6-4---4-6------|
pm.   .

Verse Overdub 
|----------------------------------|
|----8---8---8---8---8---8---8-----|
|--55-555-555-555-555-555-555-5----|
|----------------------------------|
|----------------------------------|
|----------------------------------|

Chorus
|---------------------------------------------------------|
|---------------------------------------------------------|
|---8---5---8---5---8---5-3-5---8---5---8---5---8---5-----|
|-5-6-8-3-5-6-8-3-5-6-8-3-3-5-5-6-8-3-5-6-8-3-5-6-8-3-----|
|-3---6---3---6---3---6---1-3-3---6---3---6---3---6-------|
|---------------------------------------------------------|
pm.

|-----------------|
|-----------------|
|-3-5-3-5-3-5-----|
|-3-5-3-5-3-5-----|
|-1-3-1-3-1-3-----|
|-----------------|

Bridge
|------------------------|
|------------------------|
|------------------------|
|-5-------5-----8--------|
|-3-6-8-6-3-6-8-6--------|
|---4-6-4---4-6----------|
pm. . . . . . . 

Outro
|-------------------------------------------|
|-------------------------------------------|
|---6---6---6-------6---6---6---6-----------|
|-5-4-5-4-5-4-5-4-5-4-5-4-5-4-5-4-5-5\------|
|-3---3---3---3-4-3---3-4-3---3-4-3-3\------|
|-------------------------------------------|
Tap to rate this tab
# A B C D E F G H I J K L M N O P Q R S T U V W X Y Z