Song name
# A B C D E F G H I J K L M N O P Q R S T U V W X Y Z

Afi - Miss Murder tab

#----------------------------------PLEASE NOTE---------------------------------#
#This file is the author's own work and represents their interpretation of the #
#song. You may only use this file for private study, scholarship, or research. #
#------------------------------------------------------------------------------##


          Am                   D5                   C5                    G
      5 7 7 5 x x          5 5 7 7 x x          3 3 5 5 x x          3 5 5 4 x x

          F5                    F                   E5                  E5VII
      1 3 3 x x x          1 3 3 2 x x          0 2 2 x x x          0 7 9 9 x x

          A5                    E                  A5VII                 Ab5
      5 7 7 x x x          0 2 2 1 x x          x 0 7 9 x x          x 0 7 8 x x

        C5VIII
     8 10 10 x x x

Gtr I (Eb Ab Db Gb Bb Eb) - 'Gtr. 1 (elec. w/dist.)'
Gtr II (Eb Ab Db Gb Bb Eb) - 'Gtr. 2 (elec. w/dist.)'
Gtr III (Eb Ab Db Gb Bb Eb) - 'Gtr. 3 (elec. w/dist.)'
Gtr IV (Eb Ab Db Gb Bb Eb) - 'Gtr. 1 (w/light dist. and phaser)'

 Intro
  Moderately Fast Q=144(8=s8)
  N.C.
 4/4
  Gtr I
  W          H    Q  E E   +W
|----------|-------------|------------|
|----------|-------------|------------|
|----------|---------5-9-|-(9)--------|
|----------|------7--7-7-|-(7)--------|
|----------|------0------|------------|
|----------|-------------|------------|
|
| Gtr II
| W          W              W
|----------|-------------|------------|
|----------|-------------|------------|
|----------|-------------|------------|
|----------|-------------|------------|
|----------|-------------|------------|
|----------|-------------|------------|


  A5VII
   |---3---|   |---3---|    |---3---|   |---3---|
   E   E   E   E   E   E    E   E   E   E   E   E
|---------------------------------------------------||
|---------------------------------------------------||
|--9---9---9---9---9---9----9---9---9---9---9---9---||
|--7---7---7---7---7---7----7---7---7---7---7---7---||
|--0---0---0---0---0---0----0---0---0---0---0---0---||
|---------------------------------------------------||
|
|  |---3---|   |---3---|    |---3---|   |---3---|
|  E   E   E   E   E   E    E   E   E   E   E   E
|---------------------------------------------------||
|---------------------------------------------------||
|---------------------------------------------------||
|---------------------------------------------------||
|---------------------------------------------------||
|-SSSSS-/SSSSS--||


 1st Chorus
  Am     D5             C5           G
  Q  E E  Q    E   E     Q    E   E  E E E E
|---------------------|----------------------|
|--------(7)--(7)-(7)-|-(5)--(5)-(5)---------|
|---------7----7---7--|--5----5---5--4-4-4-4-|
|-7--7-7--7----7---7--|--5----5---5--5-5-5-5-|
|-7--7-7--5----5---5--|--3----3---3--5-5-5-5-|
|-5--5-5--5----5---5--|--3----3---3--3-3-3-3-|


  Am     D5             C5           G
                                            |---3---|
  Q  E E  Q    E   E     Q    E   E  E  E   E   E   E
|---------------------|---------------------------------|
|--------(7)--(7)-(7)-|-(5)--(5)-(5)--------------------|
|-5--5-5--7----7---7--|--5----5---5--4------------------|
|-7--7-7--7----7---7--|--5----5---5--5-<5>-<5>-<5>-<5>--|
|-7--7-7--5----5---5--|--3----3---3--5------------------|
|-5--5-5--5----5---5--|--3----3---3--3------------------|


  Am     D5             C5           G
  Q  E E  Q    E   E     Q    E   E  E E E E
|---------------------|----------------------|
|--------(7)--(7)-(7)-|-(5)--(5)-(5)---------|
|-5--5-5--7----7---7--|--5----5---5--4-4-4-4-|
|-7--7-7--7----7---7--|--5----5---5--5-5-5-5-|
|-7--7-7--5----5---5--|--3----3---3--5-5-5-5-|
|-5--5-5--5----5---5--|--3----3---3--3-3-3-3-|


  F5      F         E5 E5VII
  PM----|
                        |-3-|
  E E E E E E E E   Q   E E E q  Q
|-----------------|------------------||
|-----------------|------------------||
|---------2-2-2---|----/9-9-9-9------||
|-3-3-3-3-3-3-3---|-2--/9-9-9-9------||
|-3-3-3-3-3-3-3---|-2--/7-7-7-7------||
|-1-1-1-1-1-1-1-0-|-0---0-0-0-0------||


 1st Verse
  PM|    PM         PM     PM   PM
                                       |---3---|
  E E E  E E  E  E  E   E  E E  E E E  E   E   E
|---------------------|---------------------------|
|---------------------|---------------------------|
|-----9----9h10-10----|-9----9--------------------|
|-7-7---10---------10-|---10---10-5-5-<7>-<7>-<7>-|
|---------------------|---------------------------|
|---------------------|---------------------------|


  PM|    PM         PM     PM   PM
                                      |---3---|
  E E E  E E  E  E  E   E  E E  E Q   E   E   E
|---------------------|--------------------------||
|---------------------|--------------------------||
|-----9----9h10-10----|-9----9-------------------||
|-7-7---10---------10-|---10---10-5--<7>-<7>-<7>-||
|---------------------|--------------------------||
|---------------------|--------------------------||


                   >
   +W             +W             +W             +W            Wx4
|--------------|--------------|--------------|--------------|--------||
|--------------|--------------|--------------|--------------|--------||
|--------------|--------------|--------------|--------------|--------||
|-(<7>)--------|-(<7>)--------|-(<7>)--------|-(<7>)--------|--------||
|--------------|--------------|--------------|--------------|--------||
|--------------|--------------|--------------|--------------|--------||


  $
  A5                                G                E
     PM--------|      PM--------|      PM--------|      PM--------|
  Q  E E E E E E   Q  E E E E E E   Q  E E E E E E   Q  E E E E E E
|----------------|----------------|----------------|----------------|
|----------------|----------------|----------------|----------------|
|----------------|----------------|-4--------------|-1--------------|
|-7--------------|-7--------------|-5--------------|-2--------------|
|-7--7-7-7-7-7-7-|-7--7-7-7-7-7-7-|-5--5-5-5-5-5---|-2--2-2-2-2-2-0-|
|-5--5-5-5-5-5-5-|-5--5-5-5-5-5-5-|-3--3-3-3-3-3-0-|-0--0-0-0-0-0-0-|


  A5                                G               E
     PM--------|      PM--------|      PM|    PM|
  Q  E E E E E E   Q  E E E E E E   Q  E E Q  E E   q  Q  H
|----------------|----------------|---------------|------------||
|----------------|----------------|---------------|------------||
|----------------|----------------|-4------4------|-1----------||
|-7--------------|-7--------------|-5------5------|-2----------||
|-7--7-7-7-7-7-7-|-7--7-7-7-7-7-7-|-5--5-5-5--5-0-|-2----------||
|-5--5-5-5-5-5-5-|-5--5-5-5-5-5-5-|-3--3-3-3--3-0-|-0----------||


 2nd and 3rd Chorus
  Am     D5             C5           G
  Q  E E  Q    E   E     Q    E   E  E E E E
|---------------------|----------------------|
|--------(7)--(7)-(7)-|-(5)--(5)-(5)---------|
|-5--5-5--7----7---7--|--5----5---5--4-4-4-4-|
|-7--7-7--7----7---7--|--5----5---5--5-5-5-5-|
|-7--7-7--5----5---5--|--3----3---3--5-5-5-5-|
|-5--5-5--5----5---5--|--3----3---3--3-3-3-3-|


  Am     D5             C5           G
                                            |---3---|
  Q  E E  Q    E   E     Q    E   E  E  E   E   E   E
|---------------------|---------------------------------|
|--------(7)--(7)-(7)-|-(5)--(5)-(5)--------------------|
|-5--5-5--7----7---7--|--5----5---5--4------------------|
|-7--7-7--7----7---7--|--5----5---5--5-<5>-<5>-<5>-<5>--|
|-7--7-7--5----5---5--|--3----3---3--5------------------|
|-5--5-5--5----5---5--|--3----3---3--3------------------|


  Am     D5             C5           G
  Q  E E  Q    E   E     Q    E   E  E E E E
|---------------------|----------------------|
|--------(7)--(7)-(7)-|-(5)--(5)-(5)---------|
|-5--5-5--7----7---7--|--5----5---5--4-4-4-4-|
|-7--7-7--7----7---7--|--5----5---5--5-5-5-5-|
|-7--7-7--5----5---5--|--3----3---3--5-5-5-5-|
|-5--5-5--5----5---5--|--3----3---3--3-3-3-3-|


                           To Coda
  F5      F         E5  E5VII
  PM----|
                         |-3-|
  E E E E E E E E   E E  E E E q  Q
|-----------------|-------------------||
|-----------------|-------------------||
|---------2-2-2-2-|-----/9-9-9-9------||
|-3-3-3-3-3-3-3-3-|-2-2-/9-9-9-9------||
|-3-3-3-3-3-3-3-3-|-2-2-/7-7-7-7------||
|-1-1-1-1-1-1-1-1-|-0-0--0-0-0-0------||


 Interlude
  PM--------|   PM--------------------|   PM--------------------|   PM------|
  |-3-| |-3-| |-3-| |-3-|   |-3-| |-3-| |-3-| |-3-|   |-3-| |-3-| |-3-| |-3-|
  E E E E E E E E E E E E   E E E E E E E E E E E E   E E E E E E E E E E E E
|-------------------------|-------------------------|--------------------------|
|-------------------------|-------------------------|--------------------------|
|-------------5-----------|-------------7-----------|-------------4------------|
|-7-7-7-7-7-7---7-7-7-7-7-|-7-7-7-7-7-7---7-7-7-7-7S|=5-5-5-5-5-5---5-5-5-5-5--|
|-------------------------|-------------------------|--------------------------|
|-------------------------|-------------------------|--------------------------|


  PM--------|   PM--------------------|   PM--|
  |-3-| |-3-| |-3-| |-3-|   |-3-| |-3-| |-3-| |-3-|   |-3-| |-3-| |-3-| |-3-|
  E E E E E E E E E E E E   E E E E E E E E E E E E   E E E E E E E E E E E E
|-------------------------|-------------------------|--------------------------|
|-------------------------|-------------------------|--------------------------|
|-------------9-----------|-------------5-----------|-------------5-----5h7-7--|
|-------------------------|-7-7-7-7-7-7---7-7-7-7-7-|-7-7-7-7-7-7---7-7--------|
|-7-7-7-7-7-7---7-7-7-7-7-|-------------------------|--------------------------|
|-------------------------|-------------------------|--------------------------|


  |-3-| |-3-| |-3-| |-3-|   |-3-| |-3-|
  E E E E E E E E E E E E   E E E E E E q  Q
|-------------------------|-------------------||
|-------------------------|-------------------||
|-------------4-----------|-9-9-9-9-9-9-9-----||
|-5-5-5-5-5-5---5-5-5-5---|-9-9-9-9-9-9-9-----||
|-------------------------|-7-7-7-7-7-7-7-----||
|-----------------------0-|-0-0-0-0-0-0-0-----||


 2nd Verse
  W          W          W          H    Q  Q
|----------|----------|----------|------------|
|----------|----------|----------|------------|
|----------|----------|----------|------------|
|----------|----------|----------|---------7--|
|----------|----------|----------|---------0--|
|----------|----------|----------|------------|


                                                D.S. al Coda
                                                |-3-| |--3--|
  +W            +W             +W               Q Q Q Q Q E E
|------------|---------------|----------------|----------------||
|------------|---------------|----------------|----------------||
|------------|---------------|----------------|----------------||
|-(7)--------|--(7)----------|-(7)------------|-7-7-7-7-7-7-7--||
|-(0)--------|--(0)----------|-(0)------------|-0-0-0-0-0-0-0--||
|------------|---------------|----------------|----------------||
|
| Gtr II
|  W            +H      H       H.       +Q     W
|-12---------|-(12)----13----|-10-------(10)s=|=7--------------||
|------------|---------------|----------------|----------------||
|------------|---------------|----------------|----------------||
|------------|---------------|----------------|----------------||
|------------|---------------|----------------|----------------||
|------------|---------------|----------------|----------------||
|
| Gtr III
|  W            +W              H.       +Q     W
|------------|---------------|----------------|----------------||
|-13---------|-(13)----------|-12-------(12)s=|=9--------------||
|------------|---------------|----------------|----------------||
|------------|---------------|----------------|----------------||
|------------|---------------|----------------|----------------||
|------------|---------------|----------------|----------------||


 Bridge
  Q=124
  &
  A5VII             Ab5     C5VIII       A5VII             Ab5     C5VIII
  Gtr IV
  E E E E E E E E   E E E E  E  E  E E   E E E E E E E E   E E E E  q   Q
|-----------------|--------------------|-----------------|-----------------||
|-----------------|--------------------|-----------------|-----------------||
|---------9-------|-8------------------|---------9-------|-8---------------||
|---7-------7-----|---7----------------|---7-------7-----|---7-----10--10--||
|-0---0-0-----0-0-|-----0---10-10-10---|-0---0-0-----0-0-|-----0---10--10--||
|-----------------|-------0--8--8--8-0-|-----------------|-------0--8---8--||


  A5VII             Ab5     C5VIII       A5VII             Ab5     C5VIII
  E E E E E E E E   E E E E  E  E  E E   E E E E E E E E   E E E E  q   Q
|-----------------|--------------------|-----------------|-----------------|
|-----------------|--------------------|-----------------|-----------------|
|---------9-------|-8------------------|---------9-------|-8---------------|
|---7-------7-----|---7----------------|---7-------7-----|---7-----10--10--|
|-0---0-0-----0-0-|-----0---10-10-10---|-0---0-0-----0-0-|-----0---10--10--|
|-----------------|-------0--8--8--8-0-|-----------------|-------0--8---8--|


  A5VII             Ab5     C5VIII       A5VII
                                                      Gtr I
                                                        PM--|
  E E E E E E E E   E E E E  E  E  E E   q  q  H      E E E E E E E E
|-----------------|--------------------|------------|-----------------|
|-----------------|--------------------|------------|-----------------|
|---------9-------|-8------------------|-9--9-------|---------9-9-9---|
|---7-------7-----|---7-----10-10-10---|-7--7-------|---7-7-7-7-7-7---|
|-0---0-0-----0-0-|-----0---10-10-10---|-0--0-------|---0-0-0-0-0-0-0-|
|-----------------|-------0--8--8--8-0-|------------|---------------0-|


  A5VII             Ab5     C5VIII       A5VII             Ab5     C5VIII
  E E E E E E E E   E E E E  E  E  E E   E E E E E E E E   E E E E  q   Q
|-----------------|--------------------|-----------------|-----------------|
|-----------------|--------------------|-----------------|-----------------|
|---------9-------|-8------------------|---------9-------|-8---------------|
|---7-------7-----|---7----------------|---7-------7-----|---7-----10--10--|
|-0---0-0-----0-0-|-----0---10-10-10---|-0---0-0-----0-0-|-----0---10--10--|
|-----------------|-------0--8--8--8-0-|-----------------|-------0--8---8--|


  A5VII             Ab5     C5VIII       A5VII
  PM----------------------|
  E E E E E E E E   E E E E  E  E  E E   q  Q  H
|-----------------|--------------------|------------||
|-----------------|--------------------|------------||
|---------9-------|-8------------------|-9--9-------||
|-----------7-----|---7-----10-10-10---|-7--7-------||
|-0-0-0-0-----0-0-|-----0-0-10-10-10-0-|-0--0-------||
|-----------------|-------0--8--8--8-0-|------------||


  Original Tempo Q=144(8=s8)
  E5                                          Am     D5
                    |-3-| |-3-| |-3-| |-3-|
  E E E E E E E E   E E E E E E E E E E E E   Q  E E  Q    E   E
|-----------------|-------------------------|---------------------|
|-----------------|-------------------------|--------(7)--(7)-(7)-|
|-----------------|-------------------------|-5--5-5--7----7---7--|
|-2-2-2-2-2-2-2-2-|-2-2-2-2-2-2-2-2-2-2-2-2-|-7--7-7--7----7---7--|
|-2-2-2-2-2-2-2-2-|-2-2-2-2-2-2-2-2-2-2-2-2-|-7--7-7--5----5---5--|
|-0-0-0-0-0-0-0-0-|-0-0-0-0-0-0-0-0-0-0-0-0-|-5--5-5--5----5---5--|


  C5           G         Am     D5
   Q    E   E  E E E E   Q  E E  Q    E   E
|----------------------|---------------------|
|-(5)--(5)-(5)---------|--------(7)--(7)-(7)-|
|--5----5---5--4-4-4-4-|-5--5-5--7----7---7--|
|--5----5---5--5-5-5-5-|-7--7-7--7----7---7--|
|--3----3---3--5-5-5-5-|-7--7-7--5----5---5--|
|--3----3---3--3-3-3-3-|-5--5-5--5----5---5--|


  C5          N.C.
  PM--------|
  |-3-| |-3-|  |---3---|   |---3---|
  E E E E E E  E   E   E   E   E   E
|-------------------------------------||
|-------------------------------------||
|-------------------------------------||
|-------------<5>-<5>-<5>-<5>-<5>-<5>-||
|-3-3-3-3-3-3---------------------<5>-||
|-3-3-3-3-3-3-------------------------||


 4th Chorus
  Am     D5             C5           G
  Q  E E  Q    E   E     Q    E   E  E E E E
|---------------------|----------------------|
|--------(7)--(7)-(7)-|-(5)--(5)-(5)---------|
|-5--5-5--7----7---7--|--5----5---5--4-4-4-4-|
|-7--7-7--7----7---7--|--5----5---5--5-5-5-5-|
|-7--7-7--5----5---5--|--3----3---3--5-5-5-5-|
|-5--5-5--5----5---5--|--3----3---3--3-3-3-3-|


  Am     D5             C5           G
                                            |---3---|
  Q  E E  Q    E   E     Q    E   E  E  E   E   E   E
|---------------------|---------------------------------|
|--------(7)--(7)-(7)-|-(5)--(5)-(5)--------------------|
|-5--5-5--7----7---7--|--5----5---5--4------------------|
|-7--7-7--7----7---7--|--5----5---5--5-<5>-<5>-<5>-<5>--|
|-7--7-7--5----5---5--|--3----3---3--5------------------|
|-5--5-5--5----5---5--|--3----3---3--3------------------|


  Am     D5             C5           G
  Q  E E  Q    E   E     Q    E   E  E E E E
|---------------------|----------------------|
|--------(7)--(7)-(7)-|-(5)--(5)-(5)---------|
|-5--5-5--7----7---7--|--5----5---5--4-4-4-4-|
|-7--7-7--7----7---7--|--5----5---5--5-5-5-5-|
|-7--7-7--5----5---5--|--3----3---3--5-5-5-5-|
|-5--5-5--5----5---5--|--3----3---3--3-3-3-3-|


  F5      F         E5      E5VII
  PM----|
  E E E E E E E E   E E E E  E E E E
|-----------------|------------------||
|-----------------|------------------||
|---------2-2-2---|---------/9-9-9-9-||
|-3-3-3-3-3-3-3---|-2-2-2-2-/9-9-9-9-||
|-3-3-3-3-3-3-3---|-2-2-2-2-/7-7-7-7-||
|-1-1-1-1-1-1-1-0-|-0-0-0-0--0-0-0-0-||


  Am      D5             C5           G
  Gtr I
   Q  E E  Q    E   E     Q    E   E   E E  E E
|----------------------|------------------------|
|---------(7)--(7)-(7)-|-(5)--(5)-(5)-----------|
|--5--5-5--7----7---7--|--5----5---5---4-4--4-4-|
|--7--7-7--7----7---7--|--5----5---5---5-5--5-5-|
|--7--7-7--5----5---5--|--3----3---3---5-5--5-5-|
|--5--5-5--5----5---5--|--3----3---3---3-3--3-3-|
|
| Gtr II
|  TP      TP             TP           TP   TP
|  H       H              H            Q    Q
|----------------------|------------------------|
|----------------------|------------------------|
|-14------16-----------|-17-----------12---13---|
|--x-------x-----------|--x------------x----x---|
|-12------14-----------|-15-----------10---11---|
|----------------------|------------------------|


  Am      D5             C5           G
                                              |---3---|
   Q  E E  Q    E   E     Q    E   E   E  E   E   E   E
|----------------------|----------------------------------|
|---------(7)--(7)-(7)-|-(5)--(5)-(5)---------------------|
|--5--5-5--7----7---7--|--5----5---5---4------------------|
|--7--7-7--7----7---7--|--5----5---5---5-<5>-<5>-<5>-<5>--|
|--7--7-7--5----5---5--|--3----3---3---5------------------|
|--5--5-5--5----5---5--|--3----3---3---3------------------|
|
|  TP      TP             TP           TP
|  H       H              H            H
|----------------------|----------------------------------|
|----------------------|----------------------------------|
|-14------16-----------|-19-----------17------------------|
|--x-------x-----------|--x------------x------------------|
|-12------14-----------|-17-----------15------------------|
|----------------------|----------------------------------|


  Am      D5             C5           G
   Q  E E  Q    E   E     Q    E   E   E E  E E
|----------------------|------------------------|
|---------(7)--(7)-(7)-|-(5)--(5)-(5)-----------|
|--5--5-5--7----7---7--|--5----5---5---4-4--4-4-|
|--7--7-7--7----7---7--|--5----5---5---5-5--5-5-|
|--7--7-7--5----5---5--|--3----3---3---5-5--5-5-|
|--5--5-5--5----5---5--|--3----3---3---3-3--3-3-|
|
|  TP      TP             TP           TP   TP
|  H       H              H            Q    Q
|----------------------|------------------------|
|----------------------|------------------------|
|-14------16-----------|-17-----------12---13---|
|--x-------x-----------|--x------------x----x---|
|-12------14-----------|-15-----------10---11---|
|----------------------|------------------------|


  F5       F         E5       E5VII
   PM----|
   E E E E E E E E    E E E E  E E E E
|------------------|-------------------|
|------------------|-------------------|
|----------2-2-2---|----------/9-9-9-9-|
|--3-3-3-3-3-3-3---|--2-2-2-2-/9-9-9-9-|
|--3-3-3-3-3-3-3---|--2-2-2-2-/7-7-7-7-|
|--1-1-1-1-1-1-1-0-|--0-0-0-0--0-0-0-0-|
|
|  TP                 TP
|  W                  W
|------------------|-------------------|
|------------------|-------------------|
|-14---------------|-13----------------|
|--x---------------|--x----------------|
|-12---------------|-11----------------|
|------------------|-------------------|


  A5
  q  q  H
|------------*|
|------------*|
|------------*|
|-7--7-------*|
|-7--7-------*|
|-5--5-------*|
|
| q  q  H
|------------*|
|------------*|
|-9--9-------*|
|-7--7-------*|
|-0--0-------*|
|------------*|


Duration Legend
---------------
W - whole; H - half; Q - quarter; E - 8th; S - 16th; T - 32nd; X - 64th; a - acciaccatura
+ - note tied to previous; . - note dotted; .. - note double dotted
Uncapitalized letters represent notes that are staccato (1/2 duration)
Irregular groupings are notated above the duration line
Duration letters will always appear directly above the note/fret number it represents the
duration for.  Duration letters with no fret number below them represent rests.  Multi-
bar rests are notated in the form Wxn, where n is the number of bars to rest for.  Low
melody durations appear below the staff

Tablature Legend
----------------
 h   - hammer-on
 p   - pull-off
 b   - bend
 pb  - pre-bend
 r   - bend release (if no number after the r, then release immediately)
 /\  - slide into or out of (from/to "nowhere")
 s   - legato slide
 S   - shift slide
  - natural harmonic
[n]  - artificial harmonic
n(n) - tapped harmonic
 ~   - vibrato
 tr  - trill
 T   - tap
 TP  - trem. picking
 PM  - palm muting
\n/  - tremolo bar dip; n = amount to dip
 \n  - tremolo bar down
 n/  - tremolo bar up
/n\  - tremolo bar inverted dip
 =   - hold bend; also acts as connecting device for hammers/pulls
 <>  - volume swell (louder/softer)
 x   - on rhythm slash represents muted slash
 o   - on rhythm slash represents single note slash

Misc Legend
-----------
 |  - bar
||  - double bar
||o - repeat start
o|| - repeat end
*|  - double bar (ending)
 :  - bar (freetime)
 $  - Segno
 &  - Coda
Tempo markers -  = BPM(8/16=s8/s16), where s8 = swing 8ths, s16 = swing 16ths


***************************************************************************************
* Generated using Power Tab Editor by Brad Larsen - http://powertab.guitarnetwork.org *
***************************************************************************************
Tap to rate this tab
# A B C D E F G H I J K L M N O P Q R S T U V W X Y Z