Song name
# A B C D E F G H I J K L M N O P Q R S T U V W X Y Z

Afi - Interview tab

Help us improve GuitareTab! Take a short survey!
          Tabbed By: "HillcrestAvenue"
Email: Zach75@charter.net
Band: Afi
Song: The Interview
Tuning: Standard



                Verse:  
                
               Guitar 1

e|---------------------------------------------|
b|---------------------------------------------|
g|---------------------------------------------|
d|---------------------------------------------|
a|----4444444444444--Hit 4 till Chorus---------|
e|---------------------------------------------|

               Guitar 2

e|---------------------------------------------|
b|-----7----7p6-6------------------------------|
g|---6---6-------------------------------------|
d|---------------------------------------------|
a|---------------------------------------------|
e|---------------------------------------------|




                Chorus


e|---------------------------------------------|
b|---------------------------------------------|
g|---------------------------------------------|
d|-88888888888-4444444444-66-xxxxx-66-xxxxx-66-|
a|-88888888888-4444444444-66-xxxxx-66-xxxxx-66-|
e|-66666666666-2222222222-44-xxxxx-44-xxxxx-44-|

e|---------------------------------------------|
b|---------------------------------------------|
g|---------------------------------------------|
d|-8-xx-4-xx-66-66-----------------------------|
a|-8-xx-4-xx-66-66-----------------------------|
e|-6-xx-2-xx-44-44--6--Let it Ring Out---------|


             Verse

            Guitar 1

e|---------------------------------------------|
b|---------------------------------------------|
g|---------------------------------------------|
d|---------------------------------------------|
a|----4444444444444--Hit 4 till Chorus---------|
e|---------------------------------------------|

            Guitar 2

e|---------------------------------------------|
b|-----7----7p6-6------------------------------|
g|---6---6-------------------------------------|
d|---------------------------------------------|
a|---------------------------------------------|
e|---------------------------------------------|


                Chorus


e|---------------------------------------------|
b|---------------------------------------------|
g|---------------------------------------------|
d|-88888888888-4444444444-66-xxxxx-66-xxxxx-66-|
a|-88888888888-4444444444-66-xxxxx-66-xxxxx-66-|
e|-66666666666-2222222222-44-xxxxx-44-xxxxx-44-|

e|---------------------------------------------|
b|---------------------------------------------|
g|---------------------------------------------|
d|-8-xx-4-xx-66-66-----------------------------|
a|-8-xx-4-xx-66-66-----------------------------|
e|-6-xx-2-xx-44-44-----------------------------|

e|---------------------------------------------|
b|---------------------------------------------|
g|---------------------------------------------|
d|---4444444-6666666-888888888888--------------|
a|---4444444-6666666-888888888888--------------|
e|---2222222-4444444-666666666666--------------|



Related for Interview tab