Song name
# A B C D E F G H I J K L M N O P Q R S T U V W X Y Z

Afi - Prelude 1221 tab

[Prelude 12/21]
[AFI]
{Decemberunderground]

By: Joshua Oliveira
Tuning:D# G# C# F# A# D#

There's not much guitar in this song but I tabbed out some of the
sounds I heard..

[High Pitched Noises] - [00:18] - [00:53]
- ---12~---------|
- ------12-13-10-| I'm gonna be lazy here n say that its played wayy
- -9~------------| to many times to tab out..so just play that from
- ---------------| 00:18 till 00:53.
- ---------------|
- ---------------|

[Orchestra] - [00:56] - [01:08] AND [01:22] - [01:34--|
- ----------------------------------------------------|
- -----10-12---13---10-12-----------------------------| This is that orchestra sorta noise you
- -9---9--11---12---9--11-----------------------------| hear between the Oh's once the song picks
- -9---7--9----10---7--9------------------------------| up. Once again it's played too many times
- -7--------------------------------------------------| to tab each n every one of them.
- ----------------------------------------------------|

Now here's the guitar.

[Actual Guitar] - [01:08] - [01:19]
- ------------------------------------------------------------------|
- ------------------------------------------------------------------|
- ------------------------------------------------------------------|
- -----------------------------------------------9-9-9-9-9-9-9-9-9--|
- -7-7-7-7-7-7-7-7-7-7-7-7-7-7-7-7-7-7-7-7-7-7-7-7-7-7-7-7-7-7-7-7--|
- -------------------------------------------------------0-0-0-0-0--|
PM .......................................

[More Guitar] - [01:22] - [01:35]
- -------------------------------------------------------------------|
- -------------------------------------------------------------------|
- -----------------------------Acoustic------------------------------|
- -------------------------------------------------------------------|
- -7-7-7-7-7-7-7-7-7-7-7-7-7-7-7-7-7-7-7-7-7-7-7-7-7-7-7-7-7-7-7-7-7-|
- -------------------------------------------------------------------|

[End Noise] - [01:35] - [01:39]
- ---12~---------|
- ------12-13-10-|
- -9~------------|
- ---------------|
- ---------------|
- ---------------|

[Symbols Used]
~     Let Ring.
PM... Palm Mute the notes with dots(.)under them.
Tap to rate this tab
# A B C D E F G H I J K L M N O P Q R S T U V W X Y Z