Song name
# A B C D E F G H I J K L M N O P Q R S T U V W X Y Z

Afi - Missing Frame tab

 [The Missing Frame] - [04:38]


[Drums] - [00:00] - [00:08]

[Intro] - [00:08] - [00:30]
- ---------------------------------------------------------------|
- ---------------------------------------------------------------|
- -----44-4-22-2-44-4----44-4-22-2--------44-4-22-2-44-4----44-4-|
- --------------------------------44-4---------------------------|
- -22-2--------------22-2-------------22-2--------------22-2-----|
- ---------------------------------------------------------------|

  --------------------------------------------|
  --------------------------------------------|
  -22-2--------44-4-22-2-44-4----44-4-2brbrbr-|
  -----44-4-----------------------------------|
  ---------22-2--------------22-2-------------|
  --------------------------------------------|

[Verse 1] - [00:30] - [01:05]
- -----------------------------------------------------------------|
- -----------------------------------------------------------------|
- -7-7-7-7-7-7-7-7-6-6-6-6-6-6-6-6-7-7-7-7-7-7-7-7-6-6-6-6-6-6-6-6-|
- -----------------------------------------------------------------|
- -----------------------------------------------------------------|
- -----------------------------------------------------------------|
PM ...............................................................

  -----------------------------------------------------------------|
  -----------------------------------------------------------------|
  -4-4-4-4-4-4-4-4-6-6-6-6-6-6-6-6-7-7-7-7-7-7-7-7-6-6-6-6-6-6-6-6-|
  -----------------------------------------------------------------|
  -----------------------------------------------------------------|
  -----------------------------------------------------------------|
PM ...............................

  ------------------------------------------------------------------|
  ------------------------------------------------------------------|
  ------------------7-7-7-7-7-7-7-7-6-6-6-6-6-6-6-6-7-7-7-7-7-7-7-7-|
  ------3~----------------------------------------------------------|
  -5~---4~----------------------------------------------------------|
  ----------6-6-6-6-------------------------------------------------|
PM                  ...............................

  ------------------------------------------|
  ------------------------------------------|
  -6-6-6-6-6-6-6-6--------------------------|
  ----------------------3~--7-7-7-7-7-7-7-7-|
  -----------------5~---4~--7-7-7-7-7-7-7-7-|
  --------------------------5-5-5-5-5-5-5-5-|
PM                          .......

[Chorus 1, Guitar 1] - [01:05] - [01:35]
- -----------------------------------------------------------------|
- -----------------------------------------------------------------|
- -7-7-7-7-7-7-7-7-7-7-7-7-7-7-7-7-7-7-7-7-7-7-7-7-7-7-7-7-7-7-7-7-|
- -7-7-7-7-7-7-7-7-7-7-7-7-7-7-7-7-7-7-7-7-7-7-7-7-7-7-7-7-7-7-7-7-|
- -5-5-5-5-5-5-5-5-5-5-5-5-5-5-5-5-5-5-5-5-5-5-5-5-5-5-5-5-5-5-5-5-|
- -----------------------------------------------------------------|

  -----------------------------------------------------------------|
  -----------------------------------------------------------------|
  -----------------------------------------------------------------|
  -9-9-9-9-9-9-9-9-9-9-9-9-9-9-9-9-9-9-9-9-9-9-9-9-9-9-9-9-9-9-9-9-|
  -9-9-9-9-9-9-9-9-9-9-9-9-9-9-9-9-9-9-9-9-9-9-9-9-9-9-9-9-9-9-9-9-|
  -7-7-7-7-7-7-7-7-7-7-7-7-7-7-7-7-7-7-7-7-7-7-7-7-7-7-7-7-7-7-7-7-|

  -----------------------------------------------------------------|
  -----------------------------------------------------------------|
  -----------------------------------------------------------------|
  -7-7-7-7-7-7-7-7-7-7-7-7-7-7-7-7-7-7-7-7-7-7-7-7-7-7-7-7-7-7-7-7-|
  -7-7-7-7-7-7-7-7-7-7-7-7-7-7-7-7-7-7-7-7-7-7-7-7-7-7-7-7-7-7-7-7-|
  -5-5-5-5-5-5-5-5-5-5-5-5-5-5-5-5-5-5-5-5-5-5-5-5-5-5-5-5-5-5-5-5-|

  -----------------------------------------------------------------|
  -----------------------------------------------------------------|
  ---------------------------------7-7-7-7-7-7-7-7-6-6-6-6-6-6-6-6-|
  -5-5-5-5-5-5-5-5-5-5-5-5-5-5-5-5-5-5-5-5-5-5-5-5-4-4-4-4-4-4-4-4-|
  -5-5-5-5-5-5-5-5-5-5-5-5-5-5-5-5---------------------------------|
  -3-3-3-3-3-3-3-3-3-3-3-3-3-3-3-3---------------------------------|

[Chorus 1, Guitar 2] - [01:05] - [01:35]
- -----------------------------------------------------------------|
- -5-7-3~--5-7-3~--5-7-3~--5-7-3~----------------------------------|
- -x-x-x---x-x-x---x-x-x---x-x-x---7-6~--7-6~----------------------|
- -2-4-0~--2-4-0~--2-4-0~--2-4-0~--x-x---x-x--5-5-5-5-5-5-5-5-5-5--|
- -0-0-0~--0-0-0~--0-0-0~--0-0-0~--5-4~--5-4~-5-5-5-5-5-5-5-5-5-5--|
- ---------------------------------0-0~--0-0~-3-3-3-3-3-3-3-3-3-3--|

  ---------------------------------------------|
  ---------------------------------------------|
  -------------7-7-7-7-7-7-7-7-6-6-6-6-6-6-6-6-|
  -5-5-5-5-5-5-5-5-5-5-5-5-5-5-4-4-4-4-4-4-4-4-|
  -5-5-5-5-5-5---------------------------------|
  -3-3-3-3-3-3---------------------------------|

[Bridge 1] - [01:25] - [01:54]
- ----------------------------------------------------------------|
- ----------------------------------------------------------------|
- -----44-4-22-2-444-----44-4-22-2-4444----44-4-22-2---------44-4-|
- ---------------------------------------------------4444---------|
- -22-2--------------22-2--------------22-2--------------22-2-----|
- ----------------------------------------------------------------|

  ---------------------------|
  -------------------3brbrbr-|
  -22-2-4444----44-4---------|
  ---------------------------|
  ----------22-2-------------|
  ---------------------------|

[Verse 2] - [01:54] - [02:16]
- -----------------------------------------------------------------|
- -----------------------------------------------------------------|
- -7-7-7-7-7-7-7-7-6-6-6-6-6-6-6-6-7-7-7-7-7-7-7-7-6-6-6-6-6-6-6-6-|
- -----------------------------------------------------------------|
- -----------------------------------------------------------------|
- -----------------------------------------------------------------|
PM ...............................................................

  -----------------------------------------------------------------|
  -----------------------------------------------------------------|
  -4-4-4-4-4-4-4-4-6-6-6-6-6-6-6-6-7-7-7-7-7-7-7-7-6-6-6-6-6-6-6-6-|
  -----------------------------------------------------------------|
  -----------------------------------------------------------------|
  -----------------------------------------------------------------|
PM ...............................

  ------------|
  ------------|
  ------------|
  ----0h4~-3~-|
  -5~-5~---4~-|
  ------------|

[Chorus 2] - [02:16] - [02:45]
- -----------------------------------------------------------------|
- -----------------------------------------------------------------|
- -7-7-7-7-7-7-7-7-7-7-7-7-7-7-7-7-7-7-7-7-7-7-7-7-7-7-7-7-7-7-7-7-|
- -7-7-7-7-7-7-7-7-7-7-7-7-7-7-7-7-7-7-7-7-7-7-7-7-7-7-7-7-7-7-7-7-|
- -5-5-5-5-5-5-5-5-5-5-5-5-5-5-5-5-5-5-5-5-5-5-5-5-5-5-5-5-5-5-5-5-|
- -----------------------------------------------------------------|

  -----------------------------------------------------------------|
  -----------------------------------------------------------------|
  -----------------------------------------------------------------|
  -9-9-9-9-9-9-9-9-9-9-9-9-9-9-9-9-9-9-9-9-9-9-9-9-9-9-9-9-9-9-9-9-|
  -9-9-9-9-9-9-9-9-9-9-9-9-9-9-9-9-9-9-9-9-9-9-9-9-9-9-9-9-9-9-9-9-|
  -7-7-7-7-7-7-7-7-7-7-7-7-7-7-7-7-7-7-7-7-7-7-7-7-7-7-7-7-7-7-7-7-|

  -----------------------------------------------------------------|
  -----------------------------------------------------------------|
  -----------------------------------------------------------------|
  -7-7-7-7-7-7-7-7-7-7-7-7-7-7-7-7-7-7-7-7-7-7-7-7-7-7-7-7-7-7-7-7-|
  -7-7-7-7-7-7-7-7-7-7-7-7-7-7-7-7-7-7-7-7-7-7-7-7-7-7-7-7-7-7-7-7-|
  -5-5-5-5-5-5-5-5-5-5-5-5-5-5-5-5-5-5-5-5-5-5-5-5-5-5-5-5-5-5-5-5-|

  -----------------------------------------------------------------|
  -----------------------------------------------------------------|
  ---------------------------------7-7-7-7-7-7-7-7-6-6-6-6-6-6-6-6-|
  -5-5-5-5-5-5-5-5-5-5-5-5-5-5-5-5-5-5-5-5-5-5-5-5-4-4-4-4-4-4-4-4-|
  -5-5-5-5-5-5-5-5-5-5-5-5-5-5-5-5---------------------------------|
  -3-3-3-3-3-3-3-3-3-3-3-3-3-3-3-3---------------------------------|

[Chorus 1, Guitar 2] - [01:05] - [01:35]
- -----------------------------------------------------------------|
- -5-7-3~--5-7-3~--5-7-3~--5-7-3~----------------------------------|
- -x-x-x---x-x-x---x-x-x---x-x-x---7-6~--7-6~----------------------|
- -2-4-0~--2-4-0~--2-4-0~--2-4-0~--x-x---x-x--5-5-5-5-5-5-5-5-5-5--|
- -0-0-0~--0-0-0~--0-0-0~--0-0-0~--5-4~--5-4~-5-5-5-5-5-5-5-5-5-5--|
- ---------------------------------0-0~--0-0~-3-3-3-3-3-3-3-3-3-3--|

  ---------------------------------------------|
  ---------------------------------------------|
  -------------7-7-7-7-7-7-7-7-6-6-6-6-6-6-6-6-|
  -5-5-5-5-5-5-5-5-5-5-5-5-5-5-4-4-4-4-4-4-4-4-|
  -5-5-5-5-5-5---------------------------------|
  -3-3-3-3-3-3---------------------------------|

[Bass] - [01:35] - [02:48]

[Fill] - [02:48] - [02:59]
- -14~-12~/17~--------|
- ------------15~-14~-|
- --------------------|
- --------------------|
- --------------------|
- --------------------|

[Bridge 2] - [02:59] - [03:30]
- -----------------------------------------------------------------|
- -----11--11--11--11-----10--10--10--10-----11--11--11--11-----10-|
- -8-88--88--88--88---7-77--77--77--77---8-88--88--88--88---7-77---|
- -----------------------------------------------------------------|
- -----------------------------------------------------------------|
- -----------------------------------------------------------------|
PM ...............................................................

  ----------------------------------------------------------------|
  ---10--10--10-----11--11--11--11-----10---10--10--10-----10--10-|
  -77--77--77---8-88--88--88--88---7-77---77--77--77---8-88--88---|
  ----------------------------------------------------------------|
  ----------------------------------------------------------------|
  ----------------------------------------------------------------|
PM ..............................................................

  ---------------------------------------------------------------|
  ---10-----10--10--10--10-----11--11--11--11-----10--10--10--10-|
  -88---7-77--77--77--77---8-88--88--88--88---7-77--77--77--77---|
  ---------------------------------------------------------------|
  ---------------------------------------------------------------|
  ---------------------------------------------------------------|
PM .............................................................

  --------------------------------------------------------|
  ----11-----11-----10-----10-----------------------------|
  -8-8--8-8-8--8-7-7--7-7-7--7--8-7-8-10-8-10-12-10-12----|
  ------------------------------Distortion-Here--------8~-|
  -----------------------------------------------------8~-|
  -----------------------------------------------------6~-|

[Outro, Guitar 1] - [03:30] -[04:38]
- -----------------------------------------------------------------|
- -----------------------------------------------------------------|
- -7-7-7-7-7-7-7-7-7-7-7-7-7-7-7-7-7-7-7-7-7-7-7-7-7-7-7-7-7-7-7-7-|
- -7-7-7-7-7-7-7-7-7-7-7-7-7-7-7-7-7-7-7-7-7-7-7-7-7-7-7-7-7-7-7-7-|
- -5-5-5-5-5-5-5-5-5-5-5-5-5-5-5-5-5-5-5-5-5-5-5-5-5-5-5-5-5-5-5-5-|
- -----------------------------------------------------------------|

  -----------------------------------------------------------------|
  -----------------------------------------------------------------|
  -----------------------------------------------------------------|
  -9-9-9-9-9-9-9-9-9-9-9-9-9-9-9-9-9-9-9-9-9-9-9-9-9-9-9-9-9-9-9-9-|
  -9-9-9-9-9-9-9-9-9-9-9-9-9-9-9-9-9-9-9-9-9-9-9-9-9-9-9-9-9-9-9-9-|
  -7-7-7-7-7-7-7-7-7-7-7-7-7-7-7-7-7-7-7-7-7-7-7-7-7-7-7-7-7-7-7-7-|

  -----------------------------------------------------------------|
  -----------------------------------------------------------------|
  -----------------------------------------------------------------|
  -7-7-7-7-7-7-7-7-7-7-7-7-7-7-7-7-7-7-7-7-7-7-7-7-7-7-7-7-7-7-7-7-|
  -7-7-7-7-7-7-7-7-7-7-7-7-7-7-7-7-7-7-7-7-7-7-7-7-7-7-7-7-7-7-7-7-|
  -5-5-5-5-5-5-5-5-5-5-5-5-5-5-5-5-5-5-5-5-5-5-5-5-5-5-5-5-5-5-5-5-|

  -----------------------------------------------------------------|
  -----------------------------------------------------------------|
  ---------------------------------7-7-7-7-7-7-7-7-6-6-6-6-6-6-6-6-|
  -5-5-5-5-5-5-5-5-5-5-5-5-5-5-5-5-5-5-5-5-5-5-5-5-4-4-4-4-4-4-4-4-|
  -5-5-5-5-5-5-5-5-5-5-5-5-5-5-5-5---------------------------------|
  -3-3-3-3-3-3-3-3-3-3-3-3-3-3-3-3---------------------------------|

  -----------------------------------------------------------------|
  -----------------------------------------------------------------|
  -7-7-7-7-7-7-7-7-7-7-7-7-7-7-7-7-7-7-7-7-7-7-7-7-7-7-7-7-7-7-7-7-|
  -7-7-7-7-7-7-7-7-7-7-7-7-7-7-7-7-7-7-7-7-7-7-7-7-7-7-7-7-7-7-7-7-|
  -5-5-5-5-5-5-5-5-5-5-5-5-5-5-5-5-5-5-5-5-5-5-5-5-5-5-5-5-5-5-5-5-|
  -----------------------------------------------------------------|

  -----------------------------------------------------------------|
  -----------------------------------------------------------------|
  -----------------------------------------------------------------|
  -9-9-9-9-9-9-9-9-9-9-9-9-9-9-9-9-9-9-9-9-9-9-9-9-9-9-9-9-9-9-9-9-|
  -9-9-9-9-9-9-9-9-9-9-9-9-9-9-9-9-9-9-9-9-9-9-9-9-9-9-9-9-9-9-9-9-|
  -7-7-7-7-7-7-7-7-7-7-7-7-7-7-7-7-7-7-7-7-7-7-7-7-7-7-7-7-7-7-7-7-|

  -----------------------------------------------------------------|
  -----------------------------------------------------------------|
  -----------------------------------------------------------------|
  -7-7-7-7-7-7-7-7-7-7-7-7-7-7-7-7-7-7-7-7-7-7-7-7-7-7-7-7-7-7-7-7-|
  -7-7-7-7-7-7-7-7-7-7-7-7-7-7-7-7-7-7-7-7-7-7-7-7-7-7-7-7-7-7-7-7-|
  -5-5-5-5-5-5-5-5-5-5-5-5-5-5-5-5-5-5-5-5-5-5-5-5-5-5-5-5-5-5-5-5-|

  -----------------------------------------------------------------|
  -----------------------------------------------------------------|
  ---------------------------------7-7-7-7-7-7-7-7-6-6-6-6-6-6-6-6-|
  -5-5-5-5-5-5-5-5-5-5-5-5-5-5-5-5-5-5-5-5-5-5-5-5-4-4-4-4-4-4-4-4-|
  -5-5-5-5-5-5-5-5-5-5-5-5-5-5-5-5---------------------------------|
  -3-3-3-3-3-3-3-3-3-3-3-3-3-3-3-3---------------------------------|

  ----
  ----
  ----
  -9~-
  -9~-
  -7~-

[Outro, Guitar 2] - [03:30] -[04:38]
- ----------------------------------------------------------------|
- -5-7-3~--5-7-3~--5-7-3~--5-7-3~---------------------------------|
- -x-x-x---x-x-x---x-x-x---x-x-x---7-6~--7-6~---------------------|
- -2-4-0~--2-4-0~--2-4-0~--2-4-0~--x-x---x-x--5-5-5-5-5-5-5-5-5-5-|
- -0-0-0~--0-0-0~--0-0-0~--0-0-0~--5-4~--5-4~-5-5-5-5-5-5-5-5-5-5-|
- ---------------------------------0-0~--0-0~-3-3-3-3-3-3-3-3-3-3-|

  --------------------------------------------------------------|
  ----------------------------------------------5-7-3~--5-7-3~--|
  -------------7-7-7-7-7-7-7-7-6-6-6-6-6-6-6-6--x-x-x---x-x-x---|
  -5-5-5-5-5-5-5-5-5-5-5-5-5-5-4-4-4-4-4-4-4-4--2-4-0~--2-4-0~--|
  -5-5-5-5-5-5----------------------------------0-0-0~--0-0-0~--|
  -3-3-3-3-3-3--------------------------------------------------|

  ----------------------------7-7-7-9-9-9-10-10-10-10-10-10-10-10-|
  -5-7-3~--5-7-3~-------------------------------------------------|
  -x-x-x---x-x-x---7-6~--7-6~-------------------------------------|
  -2-4-0~--2-4-0~--x-x---x-x--------------------------------------|
  -0-0-0~--0-0-0~--5-4~--5-4~-------------------------------------|
  -----------------0-0~--0-0~-------------------------------------|

  -10-7-7-7-9-9-9-10-10-10-10-10-10-10-10-10----|
  ----------------------------------------------|
  ----------------------------------------------|
  -------------------------------------------9~-|
  -------------------------------------------9~-|
  -------------------------------------------7~-|
Tap to rate this tab
# A B C D E F G H I J K L M N O P Q R S T U V W X Y Z