Song name
# A B C D E F G H I J K L M N O P Q R S T U V W X Y Z

Afi - Fallen Like The Sky tab

Help us improve GuitareTab! Take a short survey!
Fallen Like the Sky

by

AFI

Tuning
|eb|
|Bb|
|Gb|
|Db|
|Ab|
|Eb|

Tab Legend
PM... = Palm Mute
(x#) = Strum/Pick # of times

|------------|------------|
|------------|------------|
|------------|------------|
|------------|------------|
|(Bass Intro)|(Bass Intro)|
|------------|------------|

Intro
|------|------|
|------|------|
|------|------|
|7-----|7-----|
|5(x16)|5(x16)|
|------|------|
PM..... ......

Verse 1
|----------|------|----------|----------|
|----------|------|----------|----------|
|----------|------|----------|----------|
|7----3----|5-----|7----3----|5---------|
|5(x8)1(x8)|3(x16)|5(x8)1(x8)|3(x8)7(x8)|
|----------|------|----------|-----5----|
PM......... ...... .......... ..........
Flee today with me and we can hide until 
they want you. 

|------------------------|------------------------|
|------------------------|------------------------|
|7-----7-----3-----3-----|5-----------5-----------|
|7-----7-----3-----3-----|5-----------5-----------|
|5(x2)-------1(x2)-------|3(x2)-3-----3(x2)-3-----|
|5-----------1-----------|3-----3-----3-----3-----|
Where the strange creatures play in mystic caves 
of strength; disassociate.

|----------|----------|----------------|----------|
|----------|----------|6-6-6-6-6-6-6-6-|----------|
|7----3----|5---------|-7-7-7-7-7-7-7-7|5----5----|
|7(x8)3(x8)|5(x8)7(x8)|----------------|3(x8)5(x8)|
|5----1----|3----7----|----------------|-----3----|
|----------|-----5----|----------------|----------|
Seal my fate. Seal my... seal your... until they
eat their own young.

Chorus 1
|--------------------|--------------------|
|--------------------|--------------------|
|3-3-3-----5-5-5-----|7-7-7-----3-3-3-----|
|3-3-3(x3)-5-5-5(x3)-|7-7-7(x3)-3-3-3(x3)-|
|1-1-1-----3-3-3-----|5-5-5-----1-1-1-----|
|--------------------|--------------------|
This is a lonely war tonight and Im 
forsaken.

|--------------------|5---6---3---5---1-3-|
|--------------------|--------------------|
|3-3-3-----5-5-5-----|--------------------|
|3-3-3(x3)-5-5-5(x3)-|--------------------|
|1-1-1-----3-3-3-----|--------------------|
|--------------------|--------------------|
Are you a lonely one, too?

|--------------------|--------------------|
|--------------------|--------------------|
|3-3-3-----5-5-5-----|7-7-7-----3-3-3-----|
|3-3-3(x3)-5-5-5(x3)-|7-7-7(x3)-3-3-3(x3)-|
|1-1-1-----3-3-3-----|5-5-5-----1-1-1-----|
|--------------------|--------------------|
This is a lonely war tonight; the soldiers
waking.

|--------------------|--------------------|
|--------------------|-6------------------|
|3-3-3-----5---------|5-------------------|
|3-3-3(x3)-5---------|--------------------|
|1-1-1-----3---------|--------------------|
|--------------------|--------------------|
They were the lonely ones, too.

Verse 2
|----------------|----------------|----------------|----------------|
|----------------|----------------|----------------|----------------|
|----------------|----------------|----------------|----------------|
|(Bass Interlude)|(Bass Interlude)|(Bass Interlude)|(Bass Interlude)|
|----------------|----------------|----------------|----------------|
|----------------|----------------|----------------|----------------|
Leave your stain and love my wounds tonight. Leave like they all do.

|------------------------|------------------------|
|------------------------|------------------------|
|7----7-7----3----3-3----|-----5-5---------5-5----|
|7(x3)7-7(x3)3(x3)3-3(x3)|-----5-5(x3)-----5-5(x3)|
|-----5-5---------1-1----|3(x3)3-3----3(x3)3-3----|
|-----5-----------1------|3----3------3----3------|
Where the strange creatures play in this game so 
fake with a reprobate.

|----------|----------|----------------|----------|
|----------|----------|6-6-6-6-6-6-6-6-|----------|
|7----3----|5---------|-7-7-7-7-7-7-7-7|5----5----|
|7(x8)3(x8)|5(x8)7(x8)|----------------|3(x8)5(x8)|
|5----1----|3----7----|----------------|-----3----|
|----------|-----5----|----------------|----------|
Seal our fate. Seal our... seal your... until they
we eat our own young.

Chorus 2
|--------------------|--------------------|
|--------------------|--------------------|
|3-3-3-----5-5-5-----|7-7-7-----3-3-3-----|
|3-3-3(x3)-5-5-5(x3)-|7-7-7(x3)-3-3-3(x3)-|
|1-1-1-----3-3-3-----|5-5-5-----1-1-1-----|
|--------------------|--------------------|
This is a lonely war tonight and Im 
forsaken.

|--------------------|5---6---3---5---1-3-|
|--------------------|--------------------|
|3-3-3-----5-5-5-----|--------------------|
|3-3-3(x3)-5-5-5(x3)-|--------------------|
|1-1-1-----3-3-3-----|--------------------|
|--------------------|--------------------|
Are you a lonely one, too?

|--------------------|--------------------|
|--------------------|--------------------|
|3-3-3-----5-5-5-----|7-7-7-----3-3-3-----|
|3-3-3(x3)-5-5-5(x3)-|7-7-7(x3)-3-3-3(x3)-|
|1-1-1-----3-3-3-----|5-5-5-----1-1-1-----|
|--------------------|--------------------|
This is a lonely war tonight; the soldiers
waking.

|--------------------|-----------|
|--------------------|-----------|
|3-3-3-----5-5-5-----|7-----7----|
|3-3-3(x3)-5-5-5(x3)-|7(x12)7(x4)|
|1-1-1-----3-3-3-----|5-----5----|
|--------------------|-----------|
                      PM....
They were the lonely ones, too.


Bridge
|----------------------------|
|8-----5-----6-----6-----6-6-|
|-7(x2)-7(x2)-7(x2)-7(x2)-7-7|
|----------------------------|
|----------------------------|
|----------------------------|(x3)

|------------------8(x2)-6-5-|
|8-----5-----6---------------|
|-7(x2)-7(x2)-7(x2)-----7-7-7|
|----------------------------|
|----------------------------|
|----------------------------|

|----------------------------|
|8-----5-----6-----6-----6-6-|
|-7(x2)-7(x2)-7(x2)-7(x2)-7-7|
|----------------------------|
|----------------------------|
|----------------------------|(x3)

|------------------8(x2)-6-5-|
|8-----5-----6---------------|
|-7(x2)-7(x2)-7(x2)-----7-7-7|
|----------------------------|
|----------------------------|
|----------------------------|

Chorus 3
|--------------------|--------------------|
|--------------------|--------------------|
|3-3-3-----5-5-5-----|7-7-7-----3-3-3-----|
|3-3-3(x3)-5-5-5(x3)-|7-7-7(x3)-3-3-3(x3)-|
|1-1-1-----3-3-3-----|5-5-5-----1-1-1-----|
|--------------------|--------------------|
This is a lonely war tonight and Im 
forsaken.

|--------------------|5---6---3---5---1-3-|
|--------------------|--------------------|
|3-3-3-----5-5-5-----|--------------------|
|3-3-3(x3)-5-5-5(x3)-|--------------------|
|1-1-1-----3-3-3-----|--------------------|
|--------------------|--------------------|
Are you a lonely one, too?

|--------------------|--------------------|
|--------------------|--------------------|
|3-3-3-----5-5-5-----|7-7-7-----3-3-3-----|
|3-3-3(x3)-5-5-5(x3)-|7-7-7(x3)-3-3-3(x3)-|
|1-1-1-----3-3-3-----|5-5-5-----1-1-1-----|
|--------------------|--------------------|
This is a lonely war tonight; the soldiers
waking.

|--------------------|-------------------5-----6-|
|--------------------|-----5-----6-8-------------|
|3-3-3-----5-5-5-----|7(x3)-7(x2)-7-7(x2)-7(x2)-7|
|3-3-3(x3)-5-5-5(x3)-|7--------------------------|
|1-1-1-----3-3-3-----|5--------------------------|
|--------------------|---------------------------|
They were the lonely ones, too.

|----------------------------|----------------------------|
|8-----5-----6-----6-----6-6-|8-----5-----6-----6-----6-6-|
|-7(x2)-7(x2)-7(x2)-7(x2)-7-7|-7(x2)-7(x2)-7(x2)-7(x2)-7-7|
|----------------------------|----------------------------|
|----------------------------|----------------------------|
|----------------------------|----------------------------|
This is a lonely war tonight; the soldiers waking. 

|----------------------------|------------------8(x2)-6-5-|
|8-----5-----6-----6-----6-6-|8-----5-----6---------------|
|-7(x2)-7(x2)-7(x2)-7(x2)-7-7|-7(x2)-7(x2)-7(x2)-----7-7-7|
|----------------------------|----------------------------|
|----------------------------|----------------------------|
|----------------------------|----------------------------|
Are you a lonely one, too?

|----------------------------|----------------------------|
|8-----5-----6-----6-----6-6-|8-----5-----6-----6-----6-6-|
|-7(x2)-7(x2)-7(x2)-7(x2)-7-7|-7(x2)-7(x2)-7(x2)-7(x2)-7-7|
|----------------------------|----------------------------|
|----------------------------|----------------------------|
|----------------------------|----------------------------|
Are you a lonely one, too? The soldiers waking.

|----------------------------|----------------------------|
|8-----5-----6-----6-----6-6-|6-----6-----6-6----6-----6--|
|-7(x2)-7(x2)-7(x2)-7(x2)-7-7|-7(x2)-7(x2)-7-7(x2)-7(x2)-7|
|----------------------------|----------------------------|
|----------------------------|----------------------------|
|----------------------------|----------------------------|
Are you a lonely one, too?"
Related for Fallen Like The Sky tab