Guitaretab - guitar tabs
Song name
# A B C D E F G H I J K L M N O P Q R S T U V W X Y Z

Afi - Miss Murder Live tab

AFI
Miss Murder Live
Jade plays a Gibson les paul studio, tuned half a step down

 INTRO: bass
            Then Jade comes in
|----------|--------------------------|
|----------|--------------------------|
|-----5--9-|--9-9-9-9-9-9-9-9-9-9-9-9-|
|-7---7--7-|--7-7-7-7-7-7-7-7-7-7-7-7-|
|-0--------|--0-0-0-0-0-0-0-0-0-0-0-0-|
|----------|--------------------------| (there is a dub of harmonics going up and down 
neck of the guitar)


CHORUS
|-------------------------------|----------------------------------|
|-------------------------------|----------------------------------|
|--------7--7-7-5--5-5-4--------|-5--5-5-7--7-7-5--5-5-------------|
|-7--7-7-7--7-7-5--5-5-5--5-5-5-|-7--7-7-7--7-7-5--5-5-5-<5--5-5-5>|
|-7--7-7-5--5-5-3--3-3-5--5-5-5-|-7--7-7-5--5-5-3--3-3-5-----------|
|-5--5-5-5--5-5-3--3-3-3--3-3-3-|-5--5-5-5--5-5-3--3-3-3-----------|

|-------------------------------|------------------------------|
|--------7--7-7-5--5-5----------|------------------------------|
|-5--5-5-7--7-7-5--5-5-4--4-4-4-|----------------------/9-9-9--|
|-7--7-7-7--7-7-5--5-5-5--5-5-5-|-3-3-3-3-3-3-3--2-2-2-/9-9-9--|
|-7--7-7-5--5-5-3--3-3-5--5-5-5-|-3-3-3-3-3-3-3--2-2-2-/7-7-7--|
|-5--5-5-5--5-5-3--3-3-3--3-3-3-|-1-1-1-1-1-1-1--0-0-0--0-0-0--|
                                 PM. . . .

VERSE (1)
e|------------------------------------------|
B|------------------------------------------|
G|-----9----9h10-10----9----9---------------|(X2)
D|-7-7---10---------10---10---10-5-5--------|
A|-----------------------------------<5-5-5>|
E|------------------------------------------|
PM . .   .          .    .    .

PRE CHORUS
e|-----------------|  |--------------------------------|
B|-----------------|  |--------------------------------|
G|-----------------|  |--------------------------------|
D|-7---7-7-7-7-7-7-|X2|-5---5-5-5-5-5--2---2-2-2-2-2-2-|
A|-7---7-7-7-7-7-7-|  |-5---5-5-5-5-5--2---2-2-2-2-2-2-|
E|-5---5-5-5-5-5-5-|  |-3---3-3-3-3-3--0---0-0-0-0-0-0-|
     PM. . . . . .        PM. . . . .    PM. . . . . .

e|-----------------|  |----------------------------------|
B|-----------------|  |----------------------------------|
G|-----------------|  |----------------------------------|
D|-7---7-7-7-7-7-7-|X2|-5---5-5-5---5-5--2---------------|
A|-7---7-7-7-7-7-7-|  |-5---5-5-5---5-5--2---------------|
E|-5---5-5-5-5-5-5-|  |-3---3-3-3---3-3--0---------------|
     PM. . . . . .        PM. .     . .     ("BEHIND")

CHORUS
|-------------------------------|----------------------------------|
|-------------------------------|----------------------------------|
|--------7--7-7-5--5-5-4--------|-5--5-5-7--7-7-5--5-5-------------|
|-7--7-7-7--7-7-5--5-5-5--5-5-5-|-7--7-7-7--7-7-5--5-5-5-<5--5-5-5>|
|-7--7-7-5--5-5-3--3-3-5--5-5-5-|-7--7-7-5--5-5-3--3-3-5-----------|
|-5--5-5-5--5-5-3--3-3-3--3-3-3-|-5--5-5-5--5-5-3--3-3-3-----------|

|-------------------------------|------------------------------|
|--------7--7-7-5--5-5----------|------------------------------|
|-5--5-5-7--7-7-5--5-5-4--4-4-4-|----------------------/9-9-9--|
|-7--7-7-7--7-7-5--5-5-5--5-5-5-|-3-3-3-3-3-3-3--2-2-2-/9-9-9--|
|-7--7-7-5--5-5-3--3-3-5--5-5-5-|-3-3-3-3-3-3-3--2-2-2-/7-7-7--|
|-5--5-5-5--5-5-3--3-3-3--3-3-3-|-1-1-1-1-1-1-1--0-0-0--0-0-0--|
                                 PM. . . .
INTERLUDE (sounds like tremelo picking here)
|---------------------------------------------------------------------------|
|---------------------------------------------------------------------------|
|-------------5-----------------------7-----------------------4-------------|
|-7-7-7-7-7-7---7-7-7-7-7-7-7-7-7-7-7---7-7-7-7-7/5-5-5-5-5-5---5-5-5-5-5---|
|-------------------------------------------------------------------------7-|
|---------------------------------------------------------------------------|
 PM. . . . . .   . . . . . . . . . . .   . . . . . . . . . . .   . . . . .

|-----------------------|---------------------------------------------------|
|-----------------------|---------------------------------------------------|
|-----------9-----------|-------------5-----------------------5-----5h7-7---|
|-----------------------|-7-7-7-7-7-7---7-7-7-7-7-7-7-7-7-7-7---7-7---------|
|-7-7-7-7-7---7-7-7-7-7-|---------------------------------------------------|
|-----------------------|---------------------------------------------------|
   . . . . .   . . . . .   . . . . . .   . . .


|---------------------------------------|
|---------------------------------------|
|-------------4-----------9-9-9-9-9-9-9-|
|-5-5-5-5-5-5---5-5-5-5---9-9-9-9-9-9-9-|
|-------------------------7-7-7-7-7-7-7-|
|-------------------------0-0-0-0-0-0-0-|

Verse: in the alubm version of this song, jade dubs over this part but live he plays the 
part an octive lower
|--------------------------------|
|--------------------------------|
|---9v~~--10v~~-7v~~--1bv~~~~~---|
|--------------------------------|
|--------------------------------|
|--------------------------------|
[ Tab from: http://www.guitaretab.com/a/afi/85574.html ]
BRIDGE
|-----------------------------------------------------------------|
|-----------------------------------------------------------------|
|---------9-------8------------------------9-------8--------------|
|---7-------7-------7----10-10-10----7-------7-------7----10--10--|
|-0---0-0-----0-0-----0--10-10-10--0---0-0-----0-0-----0--10--10--|
|------------------------8--8--8--------------------------8---8---|
           (the first time you play it clean with no distortion)

|---------------------------------------------------------------------------|
|---------------------------------------------------------------------------|
|---------9-------8-------------------9--9----------------9-9-9-9-9-9-9-9-9-|
|---7-------7-------7-----10-10-10----7--7----------------7-7-7-7-7-7-7-7-7-|
|-0---0-0-----0-0-----0---10-10-10----0--0----------------0-0-0-0-0-0-0-0-0-|
|-----------------------0--8--8--8-0----------------------------------------|
                                        ("WITHOUT HOPE")PM. . . . .
                                                     distortion on now
|-----------------------------------------------------------------|
|-----------------------------------------------------------------|
|---------9-------8------------------------9-------8--------------|
|---7-------7-------7----10-10-10----7-------7-------7----10--10--|
|-0---0-0-----0-0-----0--10-10-10--0---0-0-----0-0-----0--10--10--|
|------------------------8--8--8--------------------------8---8---| x2

e|------------------------------------------|
B|------------------------------------------|
G|---------9-------8-------------------9--9-|
D|-----------7-------7-----------------7--7-|
A|-0-0-0-0-----0-0-----0-0-10-10-10-0--0--0-|
E|-----------------------0--8--8--8-0-------|


|-------------------------------------------|
|-------------------------------------------|
|-------------------------------------------|
|-2-2-2-2-2-2-2-2--2-2-2-2-2-2-2-2-2-2-2-2--|
|-2-2-2-2-2-2-2-2--2-2-2-2-2-2-2-2-2-2-2-2--|
|-0-0-0-0-0-0-0-0--0-0-0-0-0-0-0-0-0-0-0-0--|

      (notes on B string are fretted not heard)
e|-------------------------------|-----------------------------------------|
B|-------------------------------|-----------------------------------------|
G|--------7--7-7-5--5-5----------|-5--5-5-7--7-7---------------------------|
D|-7--7-7-7--7-7-5--5-5-5--5-5-5-|-7--7-7-7--7-7---------------------------|
A|-7--7-7-5--5-5-3--3-3-5--5-5-5-|-7--7-7-5--5-5-<3-3-3-3-3-5-5-5-5-5-5-5>-|
E|-5--5-5-5--5-5-3--3-3-3--3-3-3-|-5--5-5-5--5-5-<3-3-3-3-3-------------5>-|

CHORUS
|-------------------------------|----------------------------------|
|-------------------------------|----------------------------------|
|--------7--7-7-5--5-5-4--------|-5--5-5-7--7-7-5--5-5-------------|
|-7--7-7-7--7-7-5--5-5-5--5-5-5-|-7--7-7-7--7-7-5--5-5-5-<5--5-5-5>|
|-7--7-7-5--5-5-3--3-3-5--5-5-5-|-7--7-7-5--5-5-3--3-3-5-----------|
|-5--5-5-5--5-5-3--3-3-3--3-3-3-|-5--5-5-5--5-5-3--3-3-3-----------|

|-------------------------------|------------------------------|
|--------7--7-7-5--5-5----------|------------------------------|
|-5--5-5-7--7-7-5--5-5-4--4-4-4-|----------------------/9-9-9--|
|-7--7-7-7--7-7-5--5-5-5--5-5-5-|-3-3-3-3-3-3-3--2-2-2-/9-9-9--|
|-7--7-7-5--5-5-3--3-3-5--5-5-5-|-3-3-3-3-3-3-3--2-2-2-/7-7-7--|
|-5--5-5-5--5-5-3--3-3-3--3-3-3-|-1-1-1-1-1-1-1--0-0-0--0-0-0--|
                                 PM. . . .
OUTRO CHORUS
|-------------------------------------------------------------------------|
|-------------------------------------------------------------------------|
|-14-14-14-14-14-14-14-14-16-16-16-16-16-16-16-16-17-17-17-17-17-17-17-17-|
|--x--x--x--x--x--x--x--x--x--x--x--x--x--x--x--x--x--x--x--x--x--x--x--x-|
|-12-12-12-12-12-12-12-12-14-14-14-14-14-14-14-14-15-15-15-15-15-15-15-15-|
|-------------------------------------------------------------------------|

|-------------------------|
|-------------------------|
|-12-12-12-12-13-13-13-13-|
|--x--x--x--x--x--x--x-x-|
|-10-10-10-10-11-11-11-11-|
|-------------------------|


|-------------------------------------------------------------------------|
|-------------------------------------------------------------------------|
|-14-14-14-14-14-14-14-14-16-16-16-16-16-16-16-16-19-19-19-19-19-19-19-19-|
|--x--x--x--x--x--x--x--x--x--x--x--x--x--x--x--x--x-x--x--x--x--x--x--x-|
|-12-12-12-12-12-12-12-12-14-14-14-14-14-14-14-14-17-17-17-17-17-17-17-17-|
|-------------------------------------------------------------------------|

|-------------------------|
|-------------------------|
|-17-17-17-17-17-17-17-17-|
|--x--x--x--x--x--x--x--x-|
|-15-15-15-15-15-15-15-15-|
|-------------------------|

|-------------------------------------------------------------------------|
|-------------------------------------------------------------------------|
|-14-14-14-14-14-14-14-14-16-16-16-16-16-16-16-16-17-17-17-17-17-17-17-17-|
|--x--x--x--x--x--x--x--x--x--x--x--x--x--x--x--x--x--x--x--x--x--x--x--x-|
|-12-12-12-12-12-12-12-12-14-14-14-14-14-14-14-14-15-15-15-15-15-15-15-15-|
|-------------------------------------------------------------------------|

|----------------------------------------------------|
|----------------------------------------------------|
|-13-13-13-13--------------------------/9-9-9-9--9-9-|
|--x--x--x--x---3-3-3-3-3-3-3-3--2-2-2-/9-9-9-9--7-7-|
|-11-11-11-11---3-3-3-3-3-3-3-3--2-2-2-/7-7-7-7--0-0-|
|---------------1-1-1-1-1-1-1-1--0-0-0--0-0-0-0------|
Related for Miss Murder Live tab