Song name
# A B C D E F G H I J K L M N O P Q R S T U V W X Y Z

Afroman - In Your Pussy tab

This is a hilariously vile song lyrically,
it is a simple chord sequence throughout with a pretty easy solo at the end


    Cm              Bb      Ab               Bb
E---8--8--8--8--8----6------4--4--4--4--4----6---------|
B---8--8--8--8--8----6------4--4--4--4--4----6---------|
G---8--8--8--8--8----7------5--5--5--5--5----7---------|
D---10-10-10-10-10---8------6--6--6--6--6----8---------|
A------------------------------------------------------|
E------------------------------------------------------|

This chord sequence is played from beginning to end

Solo
   Beginning of each Phrase

-----------------------------|
-----------------------------|
-12-10-8-10-12-8-8-8-8-10-12-|
-----------------------------|
-----------------------------|
-----------------------------|

Each phrase ends with a lick a bit like this
--------------------------------------|
--------------------------------------|
-12-12-12-10-12-8-10b-8---------------|
------------------------10-10---------|
--------------------------------------|
--------------------------------------|


The Solo uses the C Pentatonic Scale, and Eb Major Scale
the notes used in the licks above are the only notes used in this solo


Hope you enjoy!
Tap to rate this tab
 
# A B C D E F G H I J K L M N O P Q R S T U V W X Y Z