Song name
# A B C D E F G H I J K L M N O P Q R S T U V W X Y Z

Afroman - Because I Got High tab

Afroman
"Because I Got High"
The Good Times
2001

Standard Tuning (e B G D A E)

Started playin' round wit' some chords
n thought this sounded like
afroman. Good song lol.

e--3~-3-3--3~3-3--3--3~-3-3--3~3-3--3--|
B--3~-3-3--3~3-3--3--3~-3-3--3~3-3--3--|
G--4~-4-4--4~4-4--4--5~-5-5--5~5-5--5--|
D--5~-5-5--5~5-5--5--5~-5-5--5~5-5--5--|
A--------------------3~-3-3--3~3-3--3--|
E--------------------------------------|

e--5~-5-5--5~5-5--5--5~-5-5--5~5-5--5--|
B--5~-5-5--5~5-5--5--5~-5-5--5~5-5--5--|
G--5~-5-5--5~5-5--5--7~-7-7--7~7-7--7--|
D--7~-7-7--7~7-7--7--7~-7-7--7~7-7--7--|
A--5~-5-5--5~5-5--5--5~-5-5--5~5-5--5--|
E--------------------------------------|

e--3~-3-3--3~3-3--3--5~-5-5--5~5-5--5--|
B--3~-3-3--3~3-3--3--5~-5-5--5~5-5--5--|
G--4~-4-4--4~4-4--4--5~-5-5--5~5-5--5--|
D--5~-5-5--5~5-5--5--7~-7-7--7~7-7--7--|
A--------------------5~-5-5--5~5-5--5--|
E--------------------------------------|

e--5~-5-5--3~-3-3--3~-3-3--3~3-3--3--|
B--5~-5-5--3~-3-3--3~-3-3--3~3-3--3--|
G--7~-7-7--5~-5-5--4~-4-4--4~4-4--4--|
D--7~-7-7--5~-5-5--5~-5-5--5~5-5--5--|
A--5~-5-5--3~-3-3--------------------|
E------------------------------------|

Just this for a few minutes straight n that's it.

Tabbed by X8<-(Triggar8)->8X

Enjoy.
Tap to rate this tab
# A B C D E F G H I J K L M N O P Q R S T U V W X Y Z