Song name
# A B C D E F G H I J K L M N O P Q R S T U V W X Y Z

Afroman - Smoke 2 Blunts tab

This is for my friend James, iv'e promised him this tab for a while!


e----------------------------------------------------------------------------|
B----------------------------------------------------------------------------|
G---------------------------5------------------------------------------------|
D-5h7-5-----------------5h7---7-5h7-5-----------------5h7-7--5h7-5-----------|
A-------7-5-5h6h7--5h7----------------7-5--5h6h7--5h7--------------7-5-5h6h7-|
E----------------------------------------------------------------------------|


e-------------------------------------------------------------------------|
B---------------5---------------------------------------------------------|
G----------5------7-5-----------------------------5---5-5-5-5-7-4-4h5p4p0-|
D------5h7---7--------7-5-------------5h7-7-7-7-7---7---------------------|
A--5h7--------------------7-5-5h6h7---------------------------------------|
E-------------------------------------------------------------------------|


e-----------------------------------------------|
B-----------------------------------------------|
G--------------5------------------------------5-|
D--5h7-7-7-7-7---7-5----------------------5h7---|
A--------------------7-5-5-5-5-5-6-7--5h7-------|
E-----------------------------------------------| not finished yet
Tap to rate this tab
 
# A B C D E F G H I J K L M N O P Q R S T U V W X Y Z