Song name
# A B C D E F G H I J K L M N O P Q R S T U V W X Y Z

Afroman - Because I Got High tab

This is my first tab. Played fingerstyle.  Chords are G C D G, G C GD C.

Lyrics are available all over the net if you need them.  Verse just continually 
repeats throught the song.

Each "-" is 1/16th Timing. 4/4 Time Signature.

Tabbed by Pearcyman

INTRO:
|----------------|----------------|----------------|----------------|
|----------------|------------0---|----------------|---------1--0---|
|----------------|--------0-------|2---------------|--------------2-|
|----------------|----------------|0------00-0-----|----------------|
|----------------|3------33-3-333-|----------------|----------------|
|3------33-3-----|----------------|----------------|3------33-3-333-|


|------------0---|----------------|----------------|----------------|
|--------0-------|1-31--------31-0|----10----------|----------------|
|020-------------|--------------2-|------02----00-2|-0--------------|
|----------------|----------------|-------00-0---3-|----------------|
|----------------|3------33-3-333-|----------------|----------------|
|3------33-3-----|----------------|3---------------|3------33-3-333-|


VERSE:
|----------------|----------------|----------------|----------------|
|----------------|------------0---|----------------|---------2--0---|
|00000-00----00--|--------0-----00|22-22-22--------|-------00-----2-|
|-----------0--33|2-----------23--|0------00-0-442-|0---------------|
|----------------|3------33-3-333-|----------------|----------------|
|3------33-3-----|----------------|----------------|3------33-3-333-|


|----------------|--------0-------|----------------|-------3--------|
|0-00--------3313|1-----------3110|---010----------|------1-3-1-00--|
|-----2-0---0----|------1---------|------02---000-2|-0------------2-|
|----------------|----------------|-------00-0---3-|----------------|
|----------------|3------33-3-333-|----------------|----------------|
|3------33-3-----|----------------|3---------------|3------33-3-333-|

The End
Tap to rate this tab
 
# A B C D E F G H I J K L M N O P Q R S T U V W X Y Z