Song name
# A B C D E F G H I J K L M N O P Q R S T U V W X Y Z

Afroman - Wonderful Tonite tab

Intro:
The more you drink the better i sound


e]-------------------------------------------------------------10-----|
B]------------------------------------------------------10-11-----13--|
G]-----12b14b12-10-12--12b14b12-10------12b14b12-10-12----------------|
D]----------------------------------12--------------------------------|
A]--------------------------------------------------------------------|
E]--------------------------------------------------------------------|
          Go to the bar and buy another round
e]-------------------------------------------------------------10-----|
B]------------------------------------------------------10-11-----13--|
G]-----12b14b12-10-12--12b14b12-10------12b14b12-10-12----------------|
D]----------------------------------12--------------------------------|
A]--------------------------------------------------------------------|
E]--------------------------------------------------------------------|
      I feel wonderful........How many poeple feel wonderful tonight?

Verse:
F                           C
She unfastens her bra strap
B                          C
She slides off her underwear
F                           C
The beautiful moonlite
B                      C
Reflects on her pubic hair.


F            C
I open her legs
B                    C
Then slowly slide my tounge inside
F            C
And say darlin
B                    C
You taste wonderful tonite.

Riff:
e]-------------------------------------------------------------10-----|
B]------------------------------------------------------10-11-----13--|
G]-----12b14b12-10-12--12b14b12-10------12b14b12-10-12----------------|
D]----------------------------------12--------------------------------|
A]--------------------------------------------------------------------|
E]--------------------------------------------------------------------|

e]-------------------------------------------------------------10-----|
B]------------------------------------------------------10-11-----13--|
G]-----12b14b12-10-12--12b14b12-10------12b14b12-10-12----------------|
D]----------------------------------12--------------------------------|
A]--------------------------------------------------------------------|
E]--------------------------------------------------------------------|

Verse:
F                         C
She sucks on my dick head
B                    C
She gradually licks my balls
F                         C
She tickles my asshole
B                         C
Cause this girl can do it all.


F               C
I came so hard
B                    C
I slowly lost my eyesight
F              C
And I said darlin
B                     C
You suck wonderful tonite.

Riff:
e]-------------------------------------------------------------10-----|
B]------------------------------------------------------10-11-----13--|
G]-----12b14b12-10-12--12b14b12-10------12b14b12-10-12----------------|
D]----------------------------------12--------------------------------|
A]--------------------------------------------------------------------|
E]--------------------------------------------------------------------|
        (Phone rings) Hey get the phone man
e]-------------------------------------------------------------10-----|
B]------------------------------------------------------10-11-----13--|
G]-----12b14b12-10-12--12b14b12-10------12b14b12-10-12----------------|
D]----------------------------------12--------------------------------|
A]--------------------------------------------------------------------|
E]--------------------------------------------------------------------|
      Hello, what?

Eric Clapton aint gonna clear it?

Tell em sue me this shit is tight.


BUCOOOC!!!!!!
Tap to rate this tab
# A B C D E F G H I J K L M N O P Q R S T U V W X Y Z