Song name
# A B C D E F G H I J K L M N O P Q R S T U V W X Y Z

Afroman - Because I Got High Live tab

Here's the tab, I tabbed this for someone on the UG forums :) I hope it's right, it sounds ok to me.



                                        1/4
e|------------------------------------------------------------------|
B|------------------------------------12br12~-12-12-12-12-15-15-13~-|
G|-------------------------12h14p12---------------------------------|
D|----12-14~---------12h14------------------------------------------|
A|-14----------12h14------------------------------------------------|
E|------------------------------------------------------------------|

e|----12---12----------------------------------------------|
B|-13---------15-13-12~---12-13-12-------------------------|
G|--------------------------------14---14h15p14-12----12~--|
D|-------------------------------------------------14------|
A|---------------------------------------------------------|
E|---------------------------------------------------------|

e|------------------------|
B|------------------------|
G|-------------------(14)-|
D|-14p12-14p12----12--14--|
A|-------------14---------|
E|------------------------|


Key:
/ 	- Slide up
\ 	- Slide down
b 	- Bend
r 	- Return
x 	- Mute
PM 	- Palm mute
~ 	- Vibrato
h	- Hammer-on
p	- Pull-off
(n)     - Ghost note
Tap to rate this tab
 
# A B C D E F G H I J K L M N O P Q R S T U V W X Y Z