Song name
# A B C D E F G H I J K L M N O P Q R S T U V W X Y Z

After Forever - Strong tab

                    After forever  Strong solo

Tabbed by:Sanjeev George and Thomas George
Email:SanjeevGeorge123@yahoo.co.in

Submitted to and for www.ultimate-guitar.com, the site for all your tab needs

Tuning:Std

e|---------------------------------------------------------------------------|
B|---------------------------------------------------------------------------|
G|-------------1514v-----------14b15r14-----------1514v---------------7v---|
D|--------------------1517v-------------15/17v-----------15-17v---8-10------|
A|---2/14\2------------------------------------------------------------------|
E|---2/14\2------------------------------------------------------------------|


e|-------------------------------------------------------------|
B|-----------------------------------------18b20-18b20-r18-16--|
G|----1514v-----------15b17-r15-14\12v------------------------|
D|-----------15/17v--------------------------------------------|
A|-------------------------------------------------------------|
E|-------------------------------------------------------------|

E|--------------------------------15-15b16r15----------|
B|--15h16p15h16p15h16p15----------------------18v\-----|
G|-----------------------17--15------------------------|
D|-----------------------------------------------------|
A|-----------------------------------------------------|
E|-----------------------------------------------------|

e|----------------------------------------14v----13--14--------|
B|------------14v----13-14\11v----13h14-----------------16v---|
G|----12--13---------------------------------------------------|
D|-------------------------------------------------------------|
A|-------------------------------------------------------------|
E|-------------------------------------------------------------|

e|-------13h14-14b16---r15vvvvvvvv-------|
B|----16---------------------------------|
G|---------------------------------------|
D|---------------------------------------|
A|---------------------------------------|
E|---------------------------------------|

Please rate n comment

| /  slide up
| \  slide down
| h  hammer-on
| p  pull-off
| ~  let ring
| +  harmonic
| x  Mute note
| v  vibrato

Tap to rate this tab
 
# A B C D E F G H I J K L M N O P Q R S T U V W X Y Z