Song name
# A B C D E F G H I J K L M N O P Q R S T U V W X Y Z

After Forever - Digital Deceit tab

Hi!
I've never found any tab for this song, so I decided to try to get this by myself. 
Here's the intro. I'm not sure if it's right,
so plz be kind.
TT: @F3lipee

Tuning: Drop D

  PM......     PM.........       PM.........       PM........
|--------------------------------------------------------------------------|
|--------------------------------------------------------------------------|
|--------------------------------------------------------------------------|
|-----------5---------------5-4---------------4-5----------------5-4~~~~---|
|--------------------------------------------------------------------------|
|-2--2-2-2-----2-2-2--2--2-------2-2-2--2--2-------2-2-2--2--2-------------|




  PM......     PM.........       PM.........       PM........
|--------------------------------------------------------------------------|
|--------------------------------------------------------------------------|
|--------------------------------------------------------------------------|
|-----------5---------------5-4---------------4-5----------------5-4~~~~---|
|-3--3-3-3-----3-3-3--3--3------3-3-3--3--3--------3-3-3--3--3-------------|
|--------------------------------------------------------------------------|



  PM......     PM.........       PM.........       PM........
|--------------------------------------------------------------------------|
|--------------------------------------------------------------------------|
|--------------------------------------------------------------------------|
|-----------5---------------5-4---------------4-5----------------5-4~~~~---|
|--------------------------------------------------------------------------|
|-2--2-2-2-----2-2-2--2--2-------2-2-2--2--2-------2-2-2--2--2-------------|




  PM......     PM.........       PM.........       PM........
|--------------------------------------------------------------------------|
|--------------------------------------------------------------------------|
|--------------------------------------------------------------------------|
|-0--0-0-0--7--0-0-0--0--0--7-5---------------5-4----------------4---------|
|--------------------------------3-3-3--3--3-------2-2-2--2--2-----6~~~~---|
|--------------------------------------------------------------------------|

  PM..................................  AH    
|--------------------------------------------------------------------------|
|--------------------------------------------------------------------------|
|--------------------------------------------------------------------------|
|---------------------------------------3~~~~------------------------------|
|-2-2-2---2-2-2-2----2-2-2---2-2-2-2-2-------------------------------------|
|-2-2-2---2-2-2-2----2-2-2---2-2-2-2-2-------------------------------------|
Tap to rate this tab
 
# A B C D E F G H I J K L M N O P Q R S T U V W X Y Z