Song name
# A B C D E F G H I J K L M N O P Q R S T U V W X Y Z

After Image - Mangarap Ka tab

----------------------------------------------------------------------------
			     Mangarap ka – After image
-----------------------------------------------------------------------------
Tabbed by: MJ Nieva
Email:Darksoul_revenge@yahoo.com
Tuning: STANDARD

N0te: listen to the song to get the right timing and the right strumming and also the palm mute

INTRO:

guitar only (Distortion with light wah or u can use phaser)
e|--------------------------------------------------------|
B|--------------------------------------------------------|
G|--------------------------------------------------------|
D|-----7--------5---------------7---------5---------------|
A|---7----4-5-----5-4h5p4-----7----4-5------5-4h5p4-------|
E|-5----------3-------------5-----------3-----------------|

(Bagsakan) With drums/bass and rhythm guitar
   A5         G5            A5          G5
e|--------------------------------------------------------|
B|--------------------------------------------------------|
G|--------------------------------------------------------|
D|-----7--------5---------------7---------5---------------|
A|---7----4-5-----5-4h5p4-----7----4-5------5-4h5p4-------|
E|-5----------3-------------5-----------3-----------------|

   A5        G5            A5          G5
e|--------------------------------------------------------|
B|--------------------------------------------------------|
G|--------------------------------------------------------|
D|-----7--------5---------------7---------5---------------|
A|---7----4-5-----5-4h5p4-----7----4-5------5-4h5p4-------|
E|-5----------3-------------5-----------3-----------------|

1st stanza: guitar 1 with light wah or phaser

    A           PM   G     PM     A
e|--------------------------------------------------|
B|-10--10--10--10-----------------10-10-10-10-------|
G|-9---9---9---9------------------9--9--9--9--------|
D|---------------x-x-5-x-5--x-x---------------------|
A|---------------x-x-5-x-5--x-x---------------------|
E|---------------x-x-3-x-3--x-x---------------------|

  PM  G   PM     PM          A
e|------------------------------------------------|
B|---------------------------10-10-10-x-10-10-10--|
G|---------------------------9--9--9--x-9--9--9---|
D|-x-x-5-5-x-x-5--5-5--5-x-x-7--7--7--x-7--7--7---|
A|-x-x-5-5-x-x-5--5-5--5-x-x----------------------|
E|-x-x-3-3-x-x-3--3-3--3-x-x----------------------|

    G              A                     G
e|-----------------------------------------|
B|-888-x-888--101010-x-10-10-10--888-x-----|
G|-777-x-777--9-9-9--x-7--7--7---777-x-----|
D|-555-x-555--7—7-7--x-7--7--7---555-x-555-|
A|-------------------------------------555-|
E|-------------------------------------333-|

PRE CHORUS:
   D       A           G          E
e|-----------------5~ --------------------------|
B|----------------5-----------------------------|
G|-7777777------------------------9999999-------|
D|-7777777-7777-7------5555555----9999999-------|
A|-5555555-7777--------5555555----7777777-------|
E|---------5555--------3333333------------------|

CHORUS:
   A           G          D             A-------------------------------| G
e|----------------------------------------------------------------------|
B|----------------------------------------------------------------------|
G|------------------------777-------7br---------------------------------|
D|-7-----777---5555x5555--777-----------7777x7777-7777x7777-5555x5555---|
A|-7-----777---5555x5555--555-5h7-5-----7777x7777-7777x7777-5555x5555---|
E|-5-3-4-555---3333x3333----------------5555x5555-5555x5555—3333x3333---|

  D                     A
e|---------------------------------------------|
B|---------------------------3h5p3b..r---------|
G|-------7br-------7br-------------------------|
D|-----5----------------777--------------------|
A|-5-7-------5h7-5------777--------------------|
E|----------------------555--------------------|

INSTRUMENTAL:
   A            G           A        G
e|-----5----------------------5------------------|
B|----5----------8-----------5--------8----------|
G|--------6-7------7-6h7-6------6-7-----6h7-6----|
D|-7-----------5-----------7--------5------------|
A|-----------------------------------------------|
E|-----------------------------------------------|

2ND STANZA:

   A            G        A            G  PM    PM    PM
e|-9--9--9--9---7-7-7-7--9--9--9--9---7-7--------------------|
B|-10-10-10-10--8-8-8-8--10-10-10-10--8-8--------------------|
G|-9--9--9--9---7-7-7-7--9--9--9--9---7-7--------------------|
D|----------------------------------------xx-5-5x5x-5-xx-----|
A|----------------------------------------xx-5-5x5x-5-xx-----|
E|----------------------------------------xx-3-3x3x-3-xx-----|

PRE CHORUS:

   D     A         G        E
e|-----------------5~ --------------------------|
B|----------------5-----------------------------|
G|-7777777------------------------9999999-------|
D|-7777777-7777-7------5555555----9999999-------|
A|-5555555-7777--------5555555----7777777-------|
E|---------5555--------3333333------------------|

CHORUS 2:
   A           G          D             A----------------------------------| G
e|-------------------------------------------------------------------------|
B|-------------------------------------------------------------------------|
G|------------------------777------7br-------------------------------------|
D|-7777x7555---5555x5555--777-----------7777x7777-7777x7777-5555x5555------|
A|-7777x7555---5555x5555--555-5h7-5-----7777x7777-7777x7777-5555x5555------|
E|-5555x5555---3333x3333----------------5555x5555-5555x5555—3333x3333------|

  D                 A
e|---------------------------------------------|
B|---------------------------3h5p3b..r---------|
G|-------7br-------7br-------------------------|
D|-----5----------------777--------------------|
A|-5-7-------5h7-5------777--------------------|
E|----------------------555--------------------|

BRIDGE:
  A  G  A G     A  G  A  G
e|12-10-9--------7--------------------|
B|---------10-8-8--10~~---------------|
G|------------------------------------|
D|------------------------------------|
A|------------------------------------|
E|------------------------------------|

  A  G  A G     A  G  A  G
e|12-10-9--------7--------------------|
B|---------10-8-8--10~~---------------|
G|------------------------------------|
D|------------------------------------|
A|------------------------------------|
E|------------------------------------|

  A  G  A G
e|12-10-9--------7------------------|
B|---------10-8-8-------------------|
G|----------------------------------|
D|----------------------------------|
A|----------------------------------|
E|----------------------------------|

(FOR RHYTHM GUITAR only) U CAN USE THIS PATTERN PANG SABAY SA LEAD SA TAAS: (CLEAN TONE 
CHORUS EFFECTS)
   A          G                                               A/
e|-9--9--9----7-7-7--------------------------------------------------------|
B|-10-10-10---8-8-8--------------------------------------------------------|
G|-9--9--9----7-7-7—REPEAT AS MANY TIMES-THEN AT LAST DO THIS--------------|
D|-------------------------------------------------------------------------|
A|------------------------------------------------------------7/-----------|
E|------------------------------------------------------------5/-----------|

continuation of Bridge
   A/sl.--- [guitar only
e|-----5----------------------5------------------|
B|----5----------8-----------5--------8----------|
G|--------6-7------7-6h7-6------6-7-----6h7-6----|
D|-7-----------5-----------7--------5------------|
A|-----------------------------------------------|
E|-----------------------------------------------|

(Bagsakan)CHECK FOR THE RIGHT TIMING
   A        G    F#-G-Ab  A      G    F#-G-Ab
e|-----5--------------------------5---------------------|
B|----5----------8---------------5--------8-------------|
G|--------6-7------7-4--6—-7--------6-7-----7--4—-6--7--|
D|-7-----------5---------------7--------5---------------|
A|------------------------------------------------------|
E|------------------------------------------------------|

PRE CHORUS:

   D     A       G        E      F#~
e|----------------- -------------------------|
B|-------------------------------------------|
G|-7777777---------------------9999999---11~ |
D|-7777777-7777777---5555555---9999999---11~-|
A|-5555555-7777777---5555555---7777777---9~ -|
E|---------5555555---3333333-----------------|


CHORUS 3:
PAREHAS LANG NG DISKARTE CHORDS LANG NAIBA

B5-A5- E5
B5---A5-E5
B5-

ADLIB:

ITO YONG PART SA ADLIB NA KEYBOARD YATA YUNG GAMIT OR VIOLIN NA-I-TRANSLATE KO LANG SA 
HINDI GAANONG ACCURATE PERO KATUNOG NAMAN.MABIBIGYAN DIN KAYO NG IDEA KAHIT PAPANO HEHE..

  (B5-A5-E5-B5----------------------------------| CHORDS USED
e|-----19~ -17-16-14h16p14----------------------|
B|-12~ --------------------17—17h19p17p14p12----|
G|----------------------------------------------|
D|----------------------------------------------|
A|----------------------------------------------|
E|----------------------------------------------|

e|--------------------------------12-12-12---------|
B|-10P9-5-10P9-10-12-10-12-10p9-5----------12~~----|
G|-------------------------------------------------|
D|-------------------------------------------------|
A|-------------------------------------------------|
E|-------------------------------------------------|

THEN DITO GUITAR NA YONG GAMIT

 (B5-A5-E5-B5------------------------|CHORDS USED
e|----------------------------14~----|
B|-----16---17/16----16----14--------|
G|-/16---16-------16----16-----------|
D|-----------------------------------|
A|-----------------------------------|
E|-----------------------------------|

e|-----------14-------14-14b-12h14p12----|
B|-----16-------16--16---------------14--|
G|-/16----16------16---------------------|
D|---------------------------------------|
A|---------------------------------------|
E|---------------------------------------|

   All Triplets…………
e|----------------------------|
B|---14-16-17--16-17-19-16----|
G|-16-------------------------|
D|----------------------------|
A|----------------------------|
E|----------------------------|

e|-19b-14b-14p12-12h14p12---------------------------------|
B|------------------------16-14--14-14h16p15--14-14h16p14-|
G|-----------------------------16-----------16------------|
D|--------------------------------------------------------|
A|--------------------------------------------------------|
E|--------------------------------------------------------|

               B5            A5      E5  B5~
e|---------------------------------------------------|
B|---14-12h14p12~----16b-12-19~~/--------------------|
G|-16-------------------------------9-9--------------|
D|----------------------------------9-9--9~----------|
A|----------------------------------7-7--9~----------|
E|---------------------------------------7~----------|


THAT’S ALL…. SANA MAKATULONG SA INYO JUST LISTEN TO THE SONG MAKUKUHA NYO DIN YAN
FOR COMMENTS AND SUGESTION JUST E-MAIL ME
Tabbed by: MJ Nieva
Email:Darksoul_revenge@yahoo.com
Tuning: STANDARD


************************************

| /   slide up
| \   slide down
| h   hammer-on
| p   pull-off
| ~   vibrato
| +   harmonic
| x   Mute note
| b   Bend
| pb  Pre-bend
| br  Bend release
| pbr Pre-bend release
| brb Bend release bend

************************************
Tap to rate this tab
# A B C D E F G H I J K L M N O P Q R S T U V W X Y Z