Song name
# A B C D E F G H I J K L M N O P Q R S T U V W X Y Z

After Image - Habang May Buhay tab

Submitted by: Dexter J. Barquin
email: edlouis@sbcglobal.net


----------0-5--4p0----5-0--4/5----2----2-0--------|
--------2----------0------------------------3-5-0-|
------2-------------------------------------------|
----2---------------------------------------------|
-0------------------------------------------------|
--------------------------------------------------|


----------0-5--4p0----5-0--4/5----2----???????????..
--------2----------0-------------------???????????..
------2--------------------------------???????????..
----2----------------------------------???????????..
-0-------------------------------------???????????..
---------------------------------------???????????..

PLEASE.... HELP ME COMPLETE THIS TAB.
May nagturo lang sa akin ng tab na ito (hindi pa nga uso 
ang internet noon..lol!) kaya eto na lang ang natatandaan ko.
thanks! 


Tap to rate this tab
# A B C D E F G H I J K L M N O P Q R S T U V W X Y Z