Song name
# A B C D E F G H I J K L M N O P Q R S T U V W X Y Z

After Image - Mangarap Ka tab

Mangarap ka
astist: After image


Guys intro lang po ito wala lang akong magawa kaya nangapa nalang ako.
Salamat nga pala kay vertical strato para  sa chords. Jheric tabber ka na pala ngaun astig!

Guitar 1
    A                G
e---------------------------------------------------------------------|
B---------------------------------------------------------------------|
G---------------------------------------------------------------------|
D--------7--------------5---------------------------------------------|
A------7-------4-5--------5----2h4h5----------------------------------|
E---5----------------3------------------------------------------------| 8x


Guitar 2
    A            G
e----------------------------------------------------------------------|
B----------------------------------------------------------------------|
G----------------------------------------------------------------------|
D---7------------5-----------------------------------------------------|
A---7------------5-----------------------------------------------------|
E---5------------3-----------------------------------------------------|

Ipasok niyo yung bagsak ng power chords dun sa pangatlo at pangapat na ulit nung guitar 1.
Tap to rate this tab
# A B C D E F G H I J K L M N O P Q R S T U V W X Y Z