Song name
# A B C D E F G H I J K L M N O P Q R S T U V W X Y Z

After Midnight Project - Take Me Home Acoustic tab

Okay this was kinda hard to tab. And I'm very sure that there are mistakes in it. The
reason I am even posting this is so people can make a better tab once they know the basic
So here it is...please please please email me or comment for suggestions....just don't 
too hard on me. It's my first tab and like I said no one has tabbed this before.

Thanks


http://aftermidnightproject.com/  this is their website


-------------------------------------------------------------------------------
			     Take Me Home(Acoustic) - After Midnight Project
-------------------------------------------------------------------------------
Tabbed by: Danny Malooly
Email: dannyboyfms@hotmail.com

Tuning: Drop C tuning

    INTRO                                                    Parenthesisx2
e|---------------------------------------------------(------0---------------0------------------)--|
B|---------------------------------------------------(------1-------0-------1-------0-------1--)--|
G|--0--------0--0---------0--------0--0--------------(------2-------2-------2-------2-------2--)--|
D|--2--2--2----------2----2--2--2----------2h3p2b----(-2-2-----2-2--2--2-2-----2-2--2--2-2--2--)--|
A|--3--3--3--------3------3--3--3--------3-----------(-0-0-----0-0-----0-0-----0-0-----0-0--0--)--|
C|--0---------------------0--------------------------(-----------------------------------------)--|


     Verse         Listen for Rythem
e|--------------------------3------------------------------------------------------|
B|---1---------1------------3------------------------------------------------------|
G|---0---------2-----x3------------------------------------------------------------|
D|---2---------2------------x------------------------------------------------------|
A|---3---------0------------2------------------------------------------------------|
C|---0-----------------------------------------------------------------------------|


    Chorus!  This part is fairly accurate except for a little trouble with Am.

The overall chorus is going to be played twice.

(This chord is going to be held when he  holds the word "can't for a while..second time
in the chorus) (one with "V's" on top of it)
                              V
e|--------3---------0---------V-------------------------------|
B|--------1---------1---------3---------1---------0h1---------|
G|--0-0---0---0-0---0---0-0---0---0-0---0---0-0---0-----------|
D|--2-2---2---2-2---2---2-2---2---2-2---2---2-2---2-------x2--|
A|--3-3---3---3-3---3---3-3---3---3-3---3---3-3---3-----------|
C|------------------------------------------------------------|

e|-----------------------------------------------------------------------------------------|
B|--------1---------0---------1---------0---------1----------------------------------------|
G|--2-2---2---2-2---2---2-2---2---2-2---2---2-2---2----------------------------------------|
D|--2-2---2---2-2---2---2-2---2---2-2---2---2-2---2-----x2---second-time-around-play-once--|
A|--0-0-------0-0-------0-0-------0-0-------0-0---0-----------then-go-to-------------------|
C|-----------------------------------------------------------------------------------------|

e|--3----------------------------------------------|
B|--3----then-go-to-intro--then-verse-then-chorus--|
G|--0----------------------------------------------|
D|--x----------------------------------------------|
A|--2----------------------------------------------|
C|-------------------------------------------------|


   Bridge...a little tricky not 100% sure about this

    No i can't go on I can't live like this      x4
e|----------------------------------------------------|
B|--3------1-------1-1-1-1--0-0--1---1-1-1-1--0-0--1--|
G|--4------2--x6---0-0-0-0--0-0--0---0-0-0-0--0-0--0--|
D|--5-x6---2-------2-2-2-2--2-2--2---2-2-2-2--2-2--2--|
A|--5------0-------3-3-3-3--3-3--3---3-3-3-3--3-3--3--|
C|----------------------------------------------------|


     Little Interlude part before last chorus x4 then go to chorus
e|---0--0--0--0-----0-----0--0--3--3--0--|
B|---1--3--1--0h1p0-0h1---1--3--1--1--1--|
G|---0--0--0--0-----0-----0--0--0--0--0--|
D|---2--2--2--2-----2-----2--2--2--2--2--|
A|---------------------------------------|
C|---------------------------------------|


    Outro basically the intro but you'll notice that last part he plays is different.
    this is the last part...
e|---------------------0-----------------------------------------------------------|
B|---3---2---3-----------1---------------------------------------------------------|
G|---4---2---4-------------0-------------------------------------------------------|
D|---5---5---5---------------2-----------------------------------------------------|
A|---5---5---5-----------------3---------------------------------------------------|
C|-------------------------------0-------------------------------------------------|


| /  slide up
| \  slide down
| h  hammer-on
| p  pull-off
| ~  vibrato
| +  harmonic
| x  Mute note
===============================================================================
Tap to rate this tab
 
# A B C D E F G H I J K L M N O P Q R S T U V W X Y Z