Song name
# A B C D E F G H I J K L M N O P Q R S T U V W X Y Z

After Midnight Project - Take Me Home tab

This is my first tab! I hope that everything sounds good!And i dont really know all the 
to the song like the Pre Chorous etc.....so im just doing everything in order!So enjoy!! 
i learned this by ear!

Intro(x1)
E------------------------------------------------------------|
B---------------------5--0--1--0--2-2-2----5--0--1--0--2-2-2-|
G----0--------0----------------------------------------------|
D--2---2----2---2--------------------------------------------|
A------------------------------------------------------------|
D------------------------------------------------------------|

do this part right after the intro (4x)
E-------------------------------------------------------------------|
B-------------------------------------------------------------------|
G--------------------------------------------------------------0----|
D----2-2-2-2-2-2-2-2-2-2-2-2--0------2-2-2-2-2-2-2-2-2-2-2-2-2------|
A--------------------------------3----------------------------------|
D-------------------------------------------------------------------|

And then
E-----------------------------------------------------------------------|
B-----------------------------------------------------------------------|
G----------------------------0----------------------------0-------------|
D----2-2-2-2-2-2-2-2-2-2-2-2------2-2-2-2-2-2-2-2-2-2-2-2-------2-3-2-0-|
A-----------------------------------------------------------------------|
D-----------------------------------------------------------------------|

E------------------------------------------------------------------------|
B------------------------------------------------------------------------|
G--12--9--7--5--4-5----12--9--7--5--4-5----------------------------------|
D------------------------------------------------------------------------|
A------------------------------------------------------------------------|
D------------------------------------------------------------------------|
Tap to rate this tab
 
# A B C D E F G H I J K L M N O P Q R S T U V W X Y Z