Song name
# A B C D E F G H I J K L M N O P Q R S T U V W X Y Z

After Midnight Project - Take Me Home tab

This is my first tab! I hope that everything sounds good!And i dont really know all the 
to the song like the Pre Chorous etc.....so im just doing everything in order!So enjoy!!
Intro(x1)
E------------------------------------------------------------|
B---------------------5--0--1--0--2-2-2----5--0--1--0--2-2-2-|
G----0--------0----------------------------------------------|
D--2---2----2---2--------------------------------------------|
A------------------------------------------------------------|
D------------------------------------------------------------|

do this part right after the intro (4x)
E-------------------------------------------------------------------|
B-------------------------------------------------------------------|
G--------------------------------------------------------------0----|
D----2-2-2-2-2-2-2-2-2-2-2-2--0------2-2-2-2-2-2-2-2-2-2-2-2-2------|
A--------------------------------3----------------------------------|
D-------------------------------------------------------------------|

And then
E-----------------------------------------------------------------------|
B-----------------------------------------------------------------------|
G----------------------------0----------------------------0-------------|
D----2-2-2-2-2-2-2-2-2-2-2-2------2-2-2-2-2-2-2-2-2-2-2-2-------2-3-2-0-|
A-----------------------------------------------------------------------|
D-----------------------------------------------------------------------|

than the chorus (I think)
E-----------------------------------------------------------------------|
B-----------------------------------------------------------------------|
G--12--9--7--5--4-5----12--9--7--5--4-5-------12--9--7--5--4-5----------|
D-----------------------------------------------------------------------|
A-----------------------------------------------------------------------|
D-----------------------------------------------------------------------|

E----------------------------------------------------8-8-8-7-7-7-8-8-8-7-7-7-|
B-----------------------------------------------12---------------------------|
G--12--9--7--5-4-5---12--9--7--5--4-5---12--9--------------------------------|
D----------------------------------------------------------------------------|
A----------------------------------------------------------------------------|
D----------------------------------------------------------------------------|
p.s. end on 8 on the E string and let it ring.

then play the intro again.
E---------------------------------------------------------------------------|
B---------------------------------------------------------------------------|
G---------------------------------------------------------------------------|
D---------------------------------------------------------------------------|
A---------------------------------------------------------------------------|
D---------------------------------------------------------------------------|

until it gets to this part again and play it ove again!
E---------------------------------------------------------------------------|
B---------------------------------------------------------------------------|
G--12--9--7--5--4-5---------------------------------------------------------|
D---------------------------------------------------------------------------|
A---------------------------------------------------------------------------|
D---------------------------------------------------------------------------|
if you listen to the song you will know when to get to this part! (3x)
E---------------------------------------------------------------------------|
B---------------------------------------------------------------------------|
G---------------------------------------------------------------------------|
D----3-3-3-3-3-3---5-5-5-5-5-5---10-10-10--9-9-9--10-10-10--9-9-9-----------|
A----3-3-3-3-3-3---5-5-5-5-5-5---10-10-10--9-9-9--10-10-10--9-9-9-----------|
D----3-3-3-3-3-3---5-5-5-5-5-5---10-10-10--9-9-9--10-10-10--9-9-9-----------|

and than! after the third time do this!
E---------------------------------------------------------------------------|
B---------------------------------------------------------------------------|
G---------------------------------------------------------------------------|
D----3-3-3-3-5-5-5-5--------------------------------------------------------|
A----3-3-3-3-5-5-5-5--------------------------------------------------------|
D----3-3-3-3-5-5-5-5--------------------------------------------------------|
let the last power chord ring!

then do the chorus part again!


(outro)(1x)
E----------------------------------------------------------------------------|
B-------------------5--0--1--0------------3---0-----1------------------------|
G-----0------0------------------2-2-2-------2-------0------------------------|
D---2---2--2---2------------------------------------2------------------------|
A---------------------------------------------------3------------------------|
D----------------------------------------------------------------------------|

Enjoy!
Tap to rate this tab
 
# A B C D E F G H I J K L M N O P Q R S T U V W X Y Z