Song name
# A B C D E F G H I J K L M N O P Q R S T U V W X Y Z

After Midnight Project - Take Me Home Acoustic tab

----------------------------------------------------------------------------
Take Me Home Acoustic - After Midnight Project
----------------------------------------------------------------------------

Tabbed by: dflet31
All the other tabs for this song arent very good, here is the best i can
come up with. enjoy, pretty simple song but great sound. Accuracy isnt
perfect but content is there. Not in order.


Tuning: Both Guitars Drop C  -C-G-C-F-A-D-

Intro and Verses
|--------------------------------------------------------------------------|
|--------------------------------------------------------------------------|
|---------------------(x2)------11----------------------(x2)---------------|
|-----4---4h7--7----4-----------------11---12---11----9--------------------|
|---5-------------------------9--------------------------------------------|
|-0----0-----0---0-0--------9-----9-9---9-9---9-9--9-9---------------------|

|-----------------------|
|--end>-----------------|
|-------9---------------|
|-------------9-----11--|
|-----------------------|
|---7-7---7-7---7-7-----|

2nd Guitar
|---14-----12--10----------------------------------------------------------|
|----------------------10-10s12--------------------------------------------|
|--------------------------------------------------------------------------|
|--------------------------------------------------------------------------|
|--------------------------------------------------------------------------|
|--------------------------------------------------------------------------|

2nd part of verse is chorus minus notes in parenthesis.
Chorus -strum-
|----------------------------------------------------------------------------|
|----------------------------------------------------------------------------|
|------------9-(11----------)-x2---end>--9-----------------------------------|
|--4-(h7-4)--9-(--11-12-11-9)------------7-(9-11)----------------------------|
|--5---------9---------------------------7-----------------------------------|
|--0---------9---------------------------7-----------------------------------|

Repeat intro w/ variation of 2nd guitar.
...etc.  great song, this is the best tab for it.

************************************

| /   slide up
| \   slide down
| h   hammer-on
| p   pull-off
| ~   vibrato
| +   harmonic
| x   Mute note
| b   Bend
| pb  Pre-bend
| br  Bend release
| pbr Pre-bend release
| brb Bend release bend

************************************
Tap to rate this tab
 
# A B C D E F G H I J K L M N O P Q R S T U V W X Y Z