Song name
# A B C D E F G H I J K L M N O P Q R S T U V W X Y Z

After School - Shampoo tab

-------------------------------------------------------------------------------
			                              After School - Shampoo
-------------------------------------------------------------------------------

Tabbed by: Kshitiz Rana

Tuning: Standard

Here's the youtube cover i did for this song : http://www.youtube.com/watch?v=Y45CU42gPTQ

-------------------------------------------------------------------------------

~~~~~~
Intro:
~~~~~~
e |-----------------------------------------------| 
b |---5--4--7--5--4--5------5--4--7--5--4--5------|
g |-----------------------------------------------|
d |-----------------------------------------------| 
a |-----------------------------------------------|
e |-----------------------------------------------|  

e |------------------------------------------------| 
b |---4--4--5--4--5--7------9--7--9--10--9--7------|
g |------------------------------------------------|
d |------------------------------------------------| 
a |------------------------------------------------|
e |------------------------------------------------|  (2 times)



e |---12-11-------12-11--------12-11-------12-11-------| 
b |---------12-9--------12-10--------12-9--------12-12-|
g |----------------------------------------------------|
d |----------------------------------------------------| 
a |----------------------------------------------------|
e |----------------------------------------------------|

e |---12-11-------12-11--------12-11-12-14----11-12---| 
b |---------12-9--------12-----------------12---------|
g |-------------------------9-------------------------|
d |---------------------------------------------------| 
a |---------------------------------------------------|
e |---------------------------------------------------|

e |---12-11-------12-11--------12-11-------12-11-------| 
b |---------12-9--------12-10--------12-9--------12-12-|
g |----------------------------------------------------|
d |----------------------------------------------------| 
a |----------------------------------------------------|
e |----------------------------------------------------|

e |---12-11-------12-11--------12-11------------------| 
b |---------12-9--------12-----------12-9~------------|
g |-------------------------9-------------------------|
d |---------------------------------------------------| 
a |---------------------------------------------------|
e |---------------------------------------------------|



e |---7----------9-7~-------------7~---------9-7~-------| 
b |-----5~-4~-5~------7~-9~-10~-----5~-4~-5~------7~-5~-|
g |-----------------------------------------------------|
d |-----------------------------------------------------| 
a |-----------------------------------------------------|
e |-----------------------------------------------------|

~~~~~~~~
End Part:
~~~~~~~~~

e |---12-11-------12-11--------12-11-------12-11-------| 
b |---------12-9--------12-10--------12-9--------12-12-|
g |----------------------------------------------------|
d |----------------------------------------------------| 
a |----------------------------------------------------|
e |----------------------------------------------------|

e |---12-11-------12-11--------12-11-12-14----11-12---| 
b |---------12-9--------12-----------------12---------|
g |-------------------------9-------------------------|
d |---------------------------------------------------| 
a |---------------------------------------------------|
e |---------------------------------------------------|

e |---12-11-------12-11--------12-11-------12-11-------| 
b |---------12-9--------12-10--------12-9--------12-12-|
g |----------------------------------------------------|
d |----------------------------------------------------| 
a |----------------------------------------------------|
e |----------------------------------------------------|

e |---12-11-------12-11--------12-11------------------| 
b |---------12-9--------12-----------12-9~------------|
g |-------------------------9-------------------------|
d |---------------------------------------------------| 
a |---------------------------------------------------|
e |---------------------------------------------------|



e |---12-11-------12-11--------12-11-------12-11-------| 
b |---------12-9--------12-10--------12-9--------12-12-|
g |----------------------------------------------------|
d |----------------------------------------------------| 
a |----------------------------------------------------|
e |----------------------------------------------------|

e |---12-11-------12-11--------12-11-12-14----11-12---| 
b |---------12-9--------12-----------------12---------|
g |-------------------------9-------------------------|
d |---------------------------------------------------| 
a |---------------------------------------------------|
e |---------------------------------------------------| (2 times) 

===============================================================================
Tap to rate this tab
# A B C D E F G H I J K L M N O P Q R S T U V W X Y Z