Song name
# A B C D E F G H I J K L M N O P Q R S T U V W X Y Z

After The Burial - Drifts tab

-------------------------------------------------------------------------------
After the Burial : Drifts
-------------------------------------------------------------------------------

Tabbed by: Foster (bornofmaya)
Website: http://www.last.fm/user/bornofmaya

Tuning: Drop B
Notes: I used this video for help : http://www.youtube.com/watch?v=-DmxOzYuewY. I 
will tab the solo soon.

Intro

|-------------------------|
|-------------------------|
|-----11---13-10-----13'~-|
|-0-0----0-------11-------|
|-------------------------|
|-------------------------|
  * *    *

Riff 1 (0:02)
Repeat: x2
Notes: just follow the rhythm.

|-------------------------------------------------------------|
|-------------------------------------------------------------|
|-------------------------------------------------------------|
|-12-12-11-12-14-12-11-9--9--12-12-11-11-14-14-12-12-15-12-15-|
|-14-14-14-14-14-14-14-11-11-11-11-13-13-13-13-14-14-14-14-14-|
|-------------------------------------------------------------|
     *     *     *     *     *     *     *     *     *     *


|-------------------------------------------------------------------|
|-------------------------------------------------------------------|
|----------------------------11----14----11----12-12-11-12-12-14-12-|
|-12-12-11-12-14-12-11-11-11-11-11-11-11-11-11-14-14-14-14-14-14-14-|
|-14-14-14-14-14-14-14-9--9--9--9--9--9--9--9-----------------------|
|-------------------------------------------------------------------|
     *     *     *     *     *     *     *     *     *     *     *

|--------------|
|--------------|
|--------------|
|-12-14-12-11~-|
|--------------|
|--------------|

(0:30)

|------------------------------------------|
|------------------------------------------|
|------------------------------------------|
|-4--------------4-------------------------|
|-4--------------4-------------------------|
|-4-444444444444-4-4-4-4-4-4-4-4-4-4-4-4-4-|
    ************   * * * * * * * * * * * *

Riff 2 (0:35)
Pattern: (A x2, B) x4

A           B
|-----------|--------------14---14p12----------------------------|
|-----------|---12---12------------------14h15----14p12-11h13p11-|
|-11--------|-----------11---11-------11-------11----------------|
|---9-7-7-9-|-9----9---------------------------------------------|
|-----------|----------------------------------------------------|
|-----------|----------------------------------------------------|
 
|-----------------------------------------|
|----------------------20----22-24-22-24~-|
|-18^-18~-18181818-18^---18^--------------|
|-----------------------------------------|
|-----------------------------------------|
|-----------------------------------------|

Riff 3 (1:02)

|---------------------|-----------------------|
|---------------------|-----------------------|
|---------------------|-----------------------|
|---------------------|-----------------------|
|-7~--------7~--------|-----------------------|
|----9-7-9-----9-10-9-|-12~-9-7-9--12~-9-10-9-|
 
(1:23)

|----------------------|
|----------------------|
|----------------------|
|----------------------|
|-5~----------2~-------|
|-------7~----------6~-|

Riff 4 (1:26)
Pattern: (A x3, B) x2

A                       B
|-----------------------|---------------------------|
|-----------------------|---------------------------|
|-----------------------|---------------------------|
|-----------------------|---------------------------|
|-222--222--222-222-222-|-222--3~----3~----2~----2~-|
|-444--444--444-444-444-|-444--------5~----------4~-|

(1:52)
Pattern: A x11, B
Notes: No solo. 

A                       B
|-----------------------|-----|
|-----------------------|-----|
|-----------------------|-----|
|-----------------------|-----|
|-222--222--222-222-222-|-222-|
|-444--444--444-444-444-|-444-|
  ***  ***  *** *** ***   ***

Riff 5 (2:24)
Notes: just follow the rhythm.

|-------------------------------------------|
|-------------------------------------------|
|-------------------------------------------|
|-12-12-12-12-12-12-12-12-11-11-12-12-14-14-|
|-14-14-14-14-14-14-14-14-14-14-14-14-14-14-|
|-------------------------------------------|
     *     *     *     *     *     *     *

|-------------------------------------------------------------|
|-------------------------------------------------------------|
|-------------------------------------------------------------|
|-9--9--9--9--9--9--9--9--11-11-11-11-11-11-11-11-11-11-11-11-|
|-11-11-11-11-11-11-11-11-12-12-12-12-13-13-13-13-13-13-13-13-|
|-------------------------------------------------------------|
     *     *     *     *     *     *     *     *     *     *

(2:34)

|-------------------------------------------------|
|-------------------------------------------------|
|-------------------------------------------------|
|-12-12-12-12-12-12-12-12-11-11-12-12-14-14-14-14-|
|-14-14-14-14-14-14-14-14-14-14-14-14-14-14-14-14-|
|-------------------------------------------------|
     *     *     *     *     *     *     *     *

|---------------------------------------------------------|
|---------------------------------------------------------|
|---------------------------------------------------------|
|-9--9--9--9--11-11-12-12-8-8-8-8-9--9--11-11-12-12-14-14-|
|-10-10-10-10-12-12-13-13-7-7-7-7-10-10-12-12-13-13-15-15-|
|---------------------------------------------------------|
     *     *     *     *    *   *    *     *     *     *

(2:45)

|-------------------------------------------|
|-------------------------------------------|
|-------------------------------------------|
|-12-12-12-12-12-12-11-11-12-12-11-11-12-12-|
|-14-14-14-14-14-14-14-14-14-14-14-14-14-14-|
|-------------------------------------------|
     *     *     *     *     *     *     *

|---------------------------------------------------------|
|---------------------------------------------------------|
|---------------------------------------------------------|
|-9--9--9--9--11-11-12-12-8-8-8-8-9--9--11-11-12-12-14-14-|
|-10-10-10-10-12-12-13-13-7-7-7-7-10-10-12-12-13-13-15-15-|
|---------------------------------------------------------|
     *     *     *     *    *   *    *     *     *     *

(2:59)

|-----------------|
|-----------------|
|-----------7/11~-|
|-4~--------x-x---|
|-4~--------5/9~--|
|-4~--------------|

Breakdown (3:06)
Pattern: (A x3, B) x8
Notes: just follow the rhythm, I'm not sure about this.

A                      B
|----------------------|-------|
|----------------------|-------|
|----------------------|-------|
|----------------------|-------|
|----------------------|-------|
|-44-44-444444-44-44-4-|-44-44-|
  ** ** ****** ** ** *   ** **

(3:44)
Pattern: (A x3, B) until end

A                    B
|--------------------|-------|
|--------------------|-------|
|--------------------|-------|
|--------------------|-------|
|-44-444444-44-44-44-|-44-44-|
|-66-666666-66-66-66-|-66-66-|
  ** ****** ** ** **   ** **
Tap to rate this tab
# A B C D E F G H I J K L M N O P Q R S T U V W X Y Z