Song name
# A B C D E F G H I J K L M N O P Q R S T U V W X Y Z

After The Burial - A Steady Decline tab

-------------------------------------------------------------------------------
                             A Steady Decline - After The Burial
-------------------------------------------------------------------------------
Tabbed by: Eric
Email: WashburnWS4

Tuning: B E A D G B e

************************************

| /   slide up
| \   slide down
| h   hammer-on
| p   pull-off
| ~   vibrato
| +   harmonic
| x   Mute note
| b   Bend
| pb  Pre-bend
| br  Bend release
| pbr Pre-bend release
| brb Bend release bend

************************************


Intro Chug

e|--------------------------------------------------------------------------|
B|--------------------------------------------------------------------------|
G|--------------------------------------------------------------------------|
D|--------------------------------------------------------------------------|
A|--------------------------------------------------------------------------|
E|-----------5-----------------------------4--------------------------------|
B|-001-001b2--------001b2-0------001-001b2---------001b2-0-----001b2-0------|

e|--------------------------------------------------------------------------|
B|--------------------------------------------------------------------------|
G|--------------------------------------------------------------------------|
D|--------------------------------------------------------------------------|
A|--------------------------------------------------------------------------|
E|-----------5-------------------------------4------------------------------|
B|-001-001b2--------001b2-0------001b2-001b2-------001b2-0-----001b2-0------|

e|-----------------------------------------------|
B|-----------------------------------------------| 
G|-----------------------------------------------| 
D|-----------------------------------------------| 6x 
A|-----------------------------------------------| 
E|-----------5-----------------------------4-----| 
B|-001-001b2--------001b2-0------001-001b2-------| 


BRIDGE
e|-----------------------------6-h9-p6--------------------------------------|
B|---------------------------7---------7------------------------------------|
G|-------------------------6-------------6----------------------------------|
D|--------------8-4----4/8-----------------8-------8----------8-6-----------|
A|-2--------2----------------------------------------9--------------------8-|
E|-2--------2--------------------------------777---------777--------666-----|
B|-0--------0---------------------------------------------------------------|


VERSE 1
e|--------------------6-h9-p6-----------------------------------------------|
B|------------------7---------7---------------------------------------------|
G|----------------6-------------6-------------------------------------------|
D|------8-4---4/8-----------------8-------8----------8-6--------------------| x 8
A|------------------------------------------9--------------------8----------|
E|-777------------------------------777---------777--------666--------------|
B|--------------------------------------------------------------------------|


BREAKDOWN
e|--------------------------------------------------------------------------|
B|--------------------------------------------------------------------------|
G|--------------------------------------------------------------------------|
D|--------------------------------------------------------------------------|
A|--------------------------------------------------------------------------|
E|-----------------------2x-2x-----2x-2x-2x-2x----2x-2x---2x-2x-------------|
B|-00---0000--00--00-----0x-0x-----0x-0x-0x-0x----0x-0x---0x-0x-------------|


e|--------------------------------------------------------------------------|
B|--------------------------------------------------------------------------|
G|--------------------------------------------------------------------------|
D|--------------------------------------------------------------------------|
A|--------------------------------------------------------------------------|
E|--2x-2x-----2x-2x-2x-2x----2x-2x---2x-2x----------------------------------|
B|--0x-0x-----0x-0x-0x-0x----0x-0x---0x-0x---000----000-000---000--000------|


e|--------------------------------------------------------------------------|
B|--------------------------------------------------------------------------|
G|--------------------------------------------------------------------------|
D|--------------------------------------------------------------------------|
A|--------------------------------------------------------------------------|
E|-----------------------------------2x-2x-----2x-2x-2x-2x----2x-2x---2x-2x-|
B|--000----000-000---000--000--------0x-0x-----0x-0x-0x-0x----0x-0x---0x-0x-|

e|--------------------------------------------------------------------------|
B|--------------------------------------------------------------------------|
G|--------------------------------------------------------------------------|
D|--------------------------------------------------------------------------|
A|--------------------------------------------------------------------------|
E|--2x-2x-----2x-2x-2x-2x----2x-2x---2x-2x----------------------------------|
B|--0x-0x-----0x-0x-0x-0x----0x-0x---0x-0x------000----000-000---000--000


e|--------------------------------------------------------------------------|
B|--------------------------------------------------------------------------|
G|--------------------------------------------------------------------------|
D|--------------------------------------------------------------------------|
A|--------------------------------------------------------------------------|
E|-----------------------------------------9999-----------------9999--------|
B|--000----000-000---000--000----------00--------00-00------00--------00-00-|



The rest is pretty easy to learn by ear. 
Let me know if there's any problems with the tab.
-ERIC
Tap to rate this tab
# A B C D E F G H I J K L M N O P Q R S T U V W X Y Z