Song name
# A B C D E F G H I J K L M N O P Q R S T U V W X Y Z

After The Fall - A Friend Named Karma tab

Band: After The Fall
Song: A Friend Named Karma
Album: Always Forever Now
Tabbed By: Ben Downes
Tunning Drop D

e|----------------------------------|
B|----------------------------------|
G|--------13-13-13------------------|
D|-8-8-xx----------4-4-4-4-4-4-4-4--|
A|-8-8-xx----------4-4-4-4-4-4-4-4--|
D|-8-8-xx----------4-4-4-4-4-4-4-4--|

e|-------------------------------------------------|
B|-------------------------------------------------|\
G|--------13-13-13--------13-13-10-------13-13-10--| \  
D|-8-8-xx----------8-8-xx----------4---------------|  X2 
A|-8-8-xx----------8-8-xx----------4-X16-----------| / 
D|-8-8-xx----------8-8-xx----------4---------------|/

That's it so good luck
Tap to rate this tab
 
# A B C D E F G H I J K L M N O P Q R S T U V W X Y Z