After The Sirens - Bridges Worth Burning tab

-------------------------------------------------------------------------------
			     Bridges Worth Burning - After the Sirens
-------------------------------------------------------------------------------

http://www.myspace.com/afterthesirens

Tabbed by: thanksgiving
Email: billiejoearmstrong456@hotmail.com

Tuning: Drop D

Intro/Verse (clean)

                                              x3
e|---------------------------------------------------------------------------|
B|---------------------------------------------------------------------------|
G|---------------------------------------------------------------------------|
D|7---7-77---4--4-44---7--7-77---4--4-44-------------------------------------|
A|7---7-77---4--4-44---7--7-77---4--4-44-------------------------------------|
D|7---7-77---4--4-44---7--7-77---4--4-44-------------------------------------|

When the drums kick in, it's the exact same with with an added note
                                           x3
e|---------------------------------------------------------------------------|
B|---------------------------------------------------------------------------|
G|9---9-99---6--6-66---9--9-99---6--6-66-------------------------------------|
D|7---7-77---4--4-44---7--7-77---4--4-44-------------------------------------|
A|7---7-77---4--4-44---7--7-77---4--4-44-------------------------------------|
D|7---7-77---4--4-44---7--7-77---4--4-44-------------------------------------|

Pre Chorus

Rhythm Guitar
                                                 x1
e|---------------------------------------------------------------------------|
B|---------------------------------------------------------------------------|
G|9---9-99---6--6-66---9--9-99---6--6-66-------------------------------------|
D|7---7-77---4--4-44---7--7-77---4--4-44-------------------------------------|
A|7---7-77---4--4-44---7--7-77---4--4-44-------------------------------------|
D|7---7-77---4--4-44---7--7-77---4--4-44-------------------------------------|


Lead Guitar

e|-------10--9---------------10--9-------------------12---9---12---14---12---|
B|---10----------------10-10---------------10--------------------------------|
G|9--------------9-9-------------------9------9------------------------------|
D|---------------------------------------------------------------------------|
A|---------------------------------------------------------------------------|
D|---------------------------------------------------------------------------|

e|-------10--9---------------10--9-------------------12----------------------|
B|---10---------------10-10---------------10---------------------------------|
G|9--------------9-9-------------------9------9------------------------------|
D|---------------------------------------------------------------------------|
A|---------------------------------------------------------------------------|
D|---------------------------------------------------------------------------|


Chorus

Rythm (Distorted
                                   x4
e|---------------------------------------------------------------------------|
B|---------------------------------------------------------------------------|
G|2----------6---------9-----------------------------------------------------|
D|0--x 16----4---x8----7---x8------------------------------------------------|
A|0----------4---------7-----------------------------------------------------|
D|0----------4---------7-----------------------------------------------------|

Lead  (Clean) (not positive about this, but you can play around with some notes)
                                           x4
e|---------------------------------------------------------------------------|
B|---------------------------------------------------------------------------|
G|2-2-2-2-----------2-2-2-2--------------------------------------------------|
D|---------4-4-4-4-----------9-9-9-9-----------------------------------------|
A|---------------------------------------------------------------------------|
D|---------------------------------------------------------------------------|

Pre Verse/Verse

Rythm
                                           x5
e|---------------------------------------------------------------------------|
B|---------------------------------------------------------------------------|
G|9---9-99---6--6-66---9--9-99---6--6-66-------------------------------------|
D|7---7-77---4--4-44---7--7-77---4--4-44-------------------------------------|
A|7---7-77---4--4-44---7--7-77---4--4-44-------------------------------------|
D|7---7-77---4--4-44---7--7-77---4--4-44-------------------------------------|


Lead  (On last verse)

e|-9--9-----9--9--9-------12--12---12-12-12----------------------------------|
B|-10-10----10-10-10------10--10---10-10-10----------------------------------|
G|-9--9-----9--9--9-------9---9----9--9--9-----------------------------------|
D|---------------------------------------------------------------------------|
A|---------------------------------------------------------------------------|
D|---------------------------------------------------------------------------|


Chorus

Rythm (Distorted
                                   x8
e|---------------------------------------------------------------------------|
B|---------------------------------------------------------------------------|
G|2----------6---------9-----------------------------------------------------|
D|0--x 16----4---x8----7---x8------------------------------------------------|
A|0----------4---------7-----------------------------------------------------|
D|0----------4---------7-----------------------------------------------------|

Lead  (Clean
                                           x8
e|---------------------------------------------------------------------------|
B|---------------------------------------------------------------------------|
G|2-2-2-2-----------2-2-2-2--------------------------------------------------|
D|---------4-4-4-4-----------9-9-9-9-----------------------------------------|
A|---------------------------------------------------------------------------|
D|---------------------------------------------------------------------------|


Rythm End on

e|------------|
B|------------|
G|------------|
D|0~----------| Let it ring out
A|0~----------|
D|0~----------|


Bridge Part 1

Rythm    (Distorted)
                                                                     
e|---------------------------------------------------------------------------|
B|------------------------------------------5-----------5---------5----------|
G|-------9-----------9---------9------------6-----------6---------6----------|
D|7-7-7--7----7-7-7--7----7-7--7-----4-4-4--4----4-4-4--4----4-4--4----------|
A|7-7-7--7----7-7-7--7----7-7--7-----4-4-4--4----4-4-4--4----4-4--4----------|
D|7-7-7--7----7-7-7--7----7-7--7-----4-4-4--4----4-4-4--4----4-4--4----------|
  . . .       . . .       . .        . . .       . . .       . .


e|---------------------------------------------------------------------------|
B|------------------------------------5~-------------------------------------|
G|-------9-----------9---------9------6~-------------------------------------|
D|7-7-7--7----7-7-7--7----7-7--7------4~-------------------------------------|  Let it ring out
A|7-7-7--7----7-7-7--7----7-7--7------4~-------------------------------------|
D|7-7-7--7----7-7-7--7----7-7--7------4~-------------------------------------|
  . . .       . . .       . . 
                                                                      x7
e|--------------------------------------------------------------------------|
B|------------------------------------------5-----------5---------5---------|
G|-------9-----------9---------9------------6-----------6---------6---------|
D|7-7-7--7----7-7-7--7----7-7--7-----4-4-4--4----4-4-4--4----4-4--4---------|
A|7-7-7--7----7-7-7--7----7-7--7-----4-4-4--4----4-4-4--4----4-4--4---------|
D|7-7-7--7----7-7-7--7----7-7--7-----4-4-4--4----4-4-4--4----4-4--4---------|
  . . .       . . .       . .        . . .       . . .       . .


End on

e|---------------------------------------------------------------------------|
B|------------------------------------5~-------------------------------------|
G|-------9-----------9---------9------6~-------------------------------------|
D|7-7-7--7----7-7-7--7----7-7--7------4~-------------------------------------|  Let it ring out
A|7-7-7--7----7-7-7--7----7-7--7------4~-------------------------------------|
D|7-7-7--7----7-7-7--7----7-7--7------4~-------------------------------------|
  . . .       . . .       . .  .

Bridge Part 2
                                                         x14
e|---------------------------------------------------------------------------|
B|-----------------------------------5---------------------------------------|
G|---------6-----------------6----------6----6-------------------------------|
D|-----7-----7---7--------4----4-----------4---------------------------------|
A|---7---7-----7-------------------------------------------------------------|
D|7---------------------4----------------------------------------------------|

Chorus

Rythm (Distorted)
                                   x22
e|---------------------------------------------------------------------------|
B|---------------------------------------------------------------------------|
G|2----------6---------9-----------------------------------------------------|
D|0--x 16----4---x8----7---x8------------------------------------------------|
A|0----------4---------7-----------------------------------------------------|
D|0----------4---------7-----------------------------------------------------|


Lead (Clean)
                                  x8
e|---------------------------------------------------------------------------|
B|---------------------------------------------------------------------------|
G|2----------6---------9-----------------------------------------------------|
D|0--x 16----4---x8----7---x8------------------------------------------------|
A|0----------4---------7-----------------------------------------------------|
D|0----------4---------7-----------------------------------------------------|
                                                    x16
e|---------------------------------------------------------------------------|
B|-10-10-10-10-------9-9-9-9---------9-9-9-9---------------------------------|
G|-9--9--9--9---x 4--9-9-9-9---x2----9-9-9-9---------------------------------|
D|-7--7--7--7--------6-6-6-6-------------------------------------------------|
A|-----------------------------------7-7-7-7---------------------------------|
D|---------------------------------------------------------------------------|


End on

e|------------|
B|------------|
G|------------|
D|0~----------| Let it ring out
A|0~----------|
D|0~----------|


Any questions feel free to email me or PM me.
Tap to rate this tab
 
# A B C D E F G H I J K L M N O P Q R S T U V W X Y Z