Song name
# A B C D E F G H I J K L M N O P Q R S T U V W X Y Z

After The Tragedy - You Better Be Alone tab

    This is only the solo's at the begining it isnt as good
                but its alright so hope you enjoy
                  This is also my first time

        B=bend


        INTRO

       ----------------------------------------------------------|
       ----------------------------------------------------------|
       -----11b-9-11b-9------------------------------------------|
       -------------------11-10-9-11-10-9------------------------|
       ---------------------------------------11-10-9------------|
       ----------------------------------------------------------|

       Repeat this 3 times just like in the song

        Then after that there should be should be 2 different chords
            playing.    Here

       ----------------------------------------------------------|
       ----------------------------------------------------------|
       ----------------------------------------------------------|
       ----------------------------------------------------------|
       -------------7---------7---------7------------------------|
       -----0-0-0------0-0-0------0-0----------------------------|


        Then the second solo of the intro starts.

     1st part of second solo
       ----------------------------------------------------------|
       ----------------------------------------------------------|
       -----11b-9-11b-9------------------------------------------|
       -------------------11-10-9-11-10-9------------------------|
       ---------------------------------------11-10-9------------|
       ----------------------------------------------------------|


     2nd part of second solo
       ----------------------------------------------------------|
       ----------------------------------------------------------|
       -----11b-9-11b-9------------------------------------------|
       -------------------11-10-9-11-9-10-9----------------------|
       ---------------------------------------11-----------------|
       ----------------------------------------------------------|


     3rd and last part of second solo

       ----------------------------------------------------------|
       ------11b-9-11b-11b---------------------------------------|
       ----------------------11-10-9-----------------------------|
       ----------------------------------------------------------|
       ----------------------------------------------------------|
       ----------------------------------------------------------|

                2 different chords start again
       ----------------------------------------------------------|
       ----------------------------------------------------------|
       ----------------------------------------------------------|
       ----------------------------------------------------------|
       -------------7-----------7--------7-----------------------|
       -----0-0-0-------0-0-0-------0-0------7-7-7-7-7-7-7-------|

                  then the verse starts
                  hopefully this helped
Tap to rate this tab
# A B C D E F G H I J K L M N O P Q R S T U V W X Y Z