Guitaretab - guitar tabs
Song name
# A B C D E F G H I J K L M N O P Q R S T U V W X Y Z

After The Tragedy - Harmony tab

-------------------------------------------------------------------------------
			     Harmony - Mary Timony
-------------------------------------------------------------------------------
Tabbed by:AllHailMe94
Email:
MaryTimony.com

Tuning:EADGBE

Verse 8X
e|---------------------------------------------------------------------------|
B|---------------------------------------------------------------------------|
G|---------------------------------------------------------------------------|
D|---------------4-4--2--4--5-5----2h4h5h4p2---------------------------------|
A|----------2----------------------------------------------------------------|
E|----------0----------------------------------------------------------------|

Change
e|---------------------------------------------------------------------------|
B|---------------------------------------------------------------------------|
G|---------------------------------------------------------------------------|
D|----------------5-5---8-------5-5---8--------------------------------------|
A|----------------3-3---6-------3-3---6--------------------------------------|
E|---------------------------------------------------------------------------|
[ Tab from: http://www.guitaretab.com/a/after-the-tragedy/98371.html ]
e|---------------------------------------------------------------------------|
B|---------------------------------------------------------------------------|
G|---------------------------------------------------------------------------|
D|----------------5-5---3----------3-----------------------------------------|
A|----------------3-3---1----6-6---1-----------------------------------------|
E|---------------------------4-4---------------------------------------------|

Chorus 2X
e|---------------------------------------------------------------------------|
B|------------------------5--3-----------------------------------------------|
G|------------------------------5--------------------------------------------|
D|-------------------------------------------------------------0-2-5---------|
A|--------0-2-3-2-0--------------------------0-2-3-2-0-----------------------|
E|-----3------------3---------------------3------------3---------------------|

Bridge 2x      w/Tremolo
e|---------------------------------------------------------------------------|
B|---------------------------------------------------------------------------|
G|-----------0---------------------------------------------------------------|
D|----2-4-5--0---------------------------------------------------------------|
A|---------------------------------------------------------------------------|
E|---------------------------------------------------------------------------|

| /  slide up
| \  slide down
| h  hammer-on
| p  pull-off
| ~  vibrato
| +  harmonic
| x  Mute note
===============================================================================
Related for Harmony tab
Advertisement will be closed in 10 seconds