Song name
# A B C D E F G H I J K L M N O P Q R S T U V W X Y Z

Afterhours - 1996 tab

Band: Afterhours

title: "1.9.9.6."

album: "Hai paura del buio?"

tabbed by Damiano Fassari.


intro_part_I:
                           
   A               
e|---------------|
B|---------------|
G|-2-------------|
D|-2-------------|
A|-0-------------|
E|-0-------------|

intro:

|---------------------------------------------------------------------|
|---------------------------------------------------------------------|
|---------------------------------------------------------------------|
|-7-7-7-7-7-7-7-7--5-5-5-5-5-5-5-5--3-3-3-3-3-3-3-3--5-5-5-5--6-6-6-6-|
|-7-7-7-7-7-7-7-7--5-5-5-5-5-5-5-5--3-3-3-3-3-3-3-3--5-5-5-5--6-6-6-6-|
|-5-5-5-5-5-5-5-5--3-3-3-3-3-3-3-3--1-1-1-1-1-1-1-1--3-3-3-3--4-4-4-4-|

verse:

|---------------------------------------------------------------------|
|---------------------------------------------------------------------|
|-6-6-6-6-6-6-6-6--4-4-4-4-4-4-4-4--2-2-2-2-2-2-2-2--4-4-4-4--5-5-5-5-|
|-7-7-7-7-7-7-7-7--5-5-5-5-5-5-5-5--3-3-3-3-3-3-3-3--5-5-5-5--6-6-6-6-|
|-7-7-7-7-7-7-7-7--5-5-5-5-5-5-5-5--3-3-3-3-3-3-3-3--5-5-5-5--6-6-6-6-|
|-5-5-5-5-5-5-5-5--3-3-3-3-3-3-3-3--1-1-1-1-1-1-1-1--3-3-3-3--4-4-4-4-|

chorus: 

  p.m   
|--------------------------------------------|---------------------------------------------------|
|------------------7-7-7-7-----------7-7-7-7-|------------------7-7-7-7--------------------------|
|------------------7-7-7-7-----------7-7-7-7-|------------------7-7-7-7----------6---6---6---6---|
|-7-7-7-7-7-7-7-7--7-7-7-7--7-7-7-7--7-7-7-7-|-7-7-7-7-7-7-7-7--7-7-7-7--7-7-7-7---7---7---7---7-|
|-7-7-7-7-7-7-7-7--5-5-5-5--7-7-7-7--5-5-5-5-|-7-7-7-7-7-7-7-7--5-5-5-5--7-7-7-7-----------------|
|-5-5-5-5-5-5-5-5--5-5-5-5--5-5-5-5--5-5-5-5-|-5-5-5-5-5-5-5-5--5-5-5-5--5-5-5-5-----------------|
    
(the first part of the chorus is palm muting only the first time).


bridge:

|-----------------------------------------------------------------------|
|-----------------------------------------------------------------------|
|---------------------------------------------------5--4-5-4-5-4--4-5-4-|
|-7-7-7-7-7-7-7-7--5-5-5-5-5-5-5-5--3-3-3-3-3-3-3-3---------------------|
|-7-7-7-7-7-7-7-7--5-5-5-5-5-5-5-5--3-3-3-3-3-3-3-3---------------------|
|-5-5-5-5-5-5-5-5--3-3-3-3-3-3-3-3--1-1-1-1-1-1-1-1---------------------|


at the end of the song there is a small outro:

|-------|
|-15----|
|----14-|
|-------|
|-------|
|-------|

play it until the song is finished.



order:

-intro x2
-verse x2
-chorus
-bridge x2
-verse x2
-chorus
-bridge x2
-outro
Tap to rate this tab
# A B C D E F G H I J K L M N O P Q R S T U V W X Y Z