Song name
# A B C D E F G H I J K L M N O P Q R S T U V W X Y Z

Afterhours - Sui Giovani Doggi Ci Scatarro Su tab

AFTERHOURS:

SUI GIOVANI D'OGGI CI SCATARRO SU

Standard tuning

|---2----3---3----2----3---3----2----3---3----2----3---3---|
|---3----3---3----3----3---3----3----3---3----3----3---3---|
|---2----0---0----2----0---0----2----0---0----2----0---0---|
|---0----0---0----0----0---0----0----0---0----0----0---0---|
|--------2---2---------2---2---------2---2---------2---2---|
|--------3---3---------3---3---------3---3---------3---3---|
Guitars 1 and 2 intro/verse                                  x3

|----------------------------------------------|
|----------------------------------------------|
|----------------------------7--7--7--7--7--7--|
|---9--9--9--9--9--9--9--9---7--7--7--7--7--7--|
|---9--9--9--9--9--9--9--9---5--5--5--5--5--5--|
|---7--7--7--7--7--7--7--7---5--5--5--5--5--5--|
guitars 1 and 2 verse part 2                         x2

|-----------------------------------------------------------|
|-----------------------------------------------------------|
|-----------------------------------------------------------|
|--9-9-9-9-9-9-9-9-9-9-9-9-9-9-9-9-9-9-9-9-9-9-9-9-9-9-9-9--|
|--9-9-9-9-9-9-9-9-9-9-9-9-9-9-9-9-9-9-9-9-9-9-9-9-9-9-9-9--|
|--7-7-7-7-7-7-7-7-7-7-7-7-7-7-7-7-7-7-7-7-7-7-7-7-7-7-7-7--|
guitars 1 and 2 pre chorus

chorus is same as intro

'solos' are just noise, not tabbing them

after all the feedback at the end, guitar plays this:
|-------------------------------------------------|
|-------------------------------------------------|
|-------------------------------------------------|
|-------------------------------------------------|
|----2--2--2----2--2--2----2--2--2----2--2--2-----|
|----0--0--0----0--0--0----0--0--0----0--0--0-----|
 PM-----------------------------------------------|

thats it.
any comments, suggestions etc email me at yellowledbetter_69@hotmail.co.uk
Tap to rate this tab
# A B C D E F G H I J K L M N O P Q R S T U V W X Y Z