Song name
# A B C D E F G H I J K L M N O P Q R S T U V W X Y Z

Afterhours - Vieni Dentro tab

Help us improve GuitareTab! Take a short survey!
AFTERHOURS

VIENI DENTRO

tabbed by dan (yellowledbetter_69@hotmail.co.uk)

Drop-D tuning

|---------------------------------------------------------|
|---------------------------------------------------------|
|---------------------------------------------------------|
|---9--9--9-9-9-9-9-9-9-9--9--9-9-9-9-9-9-9-9-9-9-9-9--7--|
|---9--9--9-9-9-9-9-9-9-9--9--9-9-9-9-9-9-9-9-9-9-9-9--7--|
|---9--9--9-9-9-9-9-9-9-9--9--9-9-9-9-9-9-9-9-9-9-9-9--7--|
guitar 1 intro/verse

|-------------------------------------------------------|
|-------------------------------------------------------|
|-----10vvvvvvvvvvv-------------------10vvvvvvvvvvvvv---|
|------x-----------------------------x------------------|
|------8vvvvvvvvvvv--------------------8vvvvvvvvvvvvv---|
|-------------------------------------------------------|
guitar 2 intro/verse

|--------------------------------------------------|
|--------------------------------------------------|
|--------------------------------------------------|
|--10-10-10-10--12-12--7-7--10-10-10-10--5-5--7-7--|
|--10-10-10-10--12-12--7-7--10-10-10-10--5-5--7-7--|
|--10-10-10-10--12-12--7-7--10-10-10-10--5-5--7-7--|
both guitars chorus

|---------------------------------------------------------|
|---------------------------------------------------------|
|---------------------------------------------------------|
|--10-10-10-10--12-12--7-7--10-10-10-10--12-12-12--7-7-7--|
|--10-10-10-10--12-12--7-7--10-10-10-10--12-12-12--7-7-7--|
|--10-10-10-10--12-12--7-7--10-10-10-10--12-12-12--7-7-7--|
both guitars chorus continued

|---------------------------------|
|---------------------------------|
|---------------------------------|
|---------------------------------|
|-----------7-7-7--8-8-8-\5-5--5--|
|--9-9-9-9------------------------|
bridge  palm mute notes

|--------------------------------------|
|--10-10--10--10-x-10-x-10-10----------|
|--------------------------------------|
|--------------------------------------|
|------------------------------/---\---|
|------------------------------/---\---|
bridge guitar 2               random sliding

|------------------------------------------------|----------|
|------------------------------------------------|----------|
|------------------------------------------------|----------|
|--7-9--7-9--7-9--7-9--0--7-9--7-9--7-9--7-9--0--|--7-9--9--|
|--7-9--7-9--7-9--7-9--0--7-9--7-9--7-9--7-9--0--|--7-9--9--|
|--7-9--7-9--7-9--7-9--0--7-9--7-9--7-9--7-9--0--|--7-9--9--|
solo rhythm                                     end solo on this

|--------------------------------|
|--------------------------------|
|----------9b11r9--7h9--7vvvv----|
|--9--7-9------------------------|
|--------------------------------|
|--------------------------------|
solo       x2

|-----------------------------------------------------|
|---10----------------10b12vvvv---12r10--7--10--------|
|----9------9b11r9--7---------------------------------|
|-------7-9-----------------------------------7-9-----|
|-----------------------------------------------------|
|-----------------------------------------------------|
solo continued

|-------------------------------------------------|
|-------------------------------------------------|
|-------------------------------------------------|
|--12-12-12-12--9-9-9-9--10-10-10-10-10-10-10-10--|
|--12-12-12-12--9-9-9-9--10-10-10-10-10-10-10-10--|
|--12-12-12-12--9-9-9-9--10-10-10-10-10-10-10-10--|
outro  (il sangue risolve da se....)

that's all the parts. it's easy to figure out where they go.
any comments etc email me.
Related for Vieni Dentro tab