Song name
# A B C D E F G H I J K L M N O P Q R S T U V W X Y Z

Afterhours - Lestate tab

Help us improve GuitareTab! Take a short survey!
AFTERHOURS

L'ESTATE

tabbed by dan (yellowledbetter_69@hotmail.co.uk)

standard tuning

this tab is based on a live clip, not the album version

|-----------------------------------|
|----------------make---------------|
|----------------lots---------------|
|--2vvvvvvvvvvvvv---of--------------|
|--2vvvvvvvvvvvvv--noise------------|
|--0vvvvvvvvvvvvv---(go nuts!)------|
intro/chorus   LOADS OF DISTORTION/FUZZ, TREM ETC

|-------------------------------------------------|
|-------------------------------------------------|
|--------------------11---------------------------|
|-----(5)-(7)\(9)-(4)--9----9------7/9-5-10/12----|
|---------------10---------10/3-------------------|
|--(0)--------------------------------------------|
verses               with trem pedal
NOTE: THE BASS SOUNDS LIKE GUITAR, SO I HAVE PUT THE BASS (TABBED FOR GUITAR)
IN BRACKETS

|-----------------------------------------------|
|-----------------------------------------------|
|-----11---------11------------9-------9--------|
|--------12---------12-----------10------10-----|
|--10---------10-------10---/8-------8------8---|
|-----------------------------------------------|
part 2 of verse     with trem pedal

that's everything. e-mail if you have suggestions/requests.
Related for Lestate tab