Song name
# A B C D E F G H I J K L M N O P Q R S T U V W X Y Z

Afterhours - Lasciami Leccare Ladrenalina tab

Help us improve GuitareTab! Take a short survey!
AFTERHOURS

LASCIAMI LECCARE L'ADRENALINA

tabbed by dan (yellowledbetter_69@hotmail.co.uk)

standard tuning

|-------------------------------------|
|-------------------------------------|
|-----------2-2-2-2--5-5-5-5-5-5-5-5--|
|--2-2-2-2--2-2-2-2--5-5-5-5-5-5-5-5--|
|--2-2-2-2--0-0-0-0--3-3-3-3-3-3-3-3--|
|--0-0-0-0----------------------------|
verse                        x4

|-------------------------------------|
|-------------------------------------|
|-------------------------------------|
|--5-5-5-5--6-6-6-6--3-3-3-3-3-3-3-3--|
|--5-5-5-5--6-6-6-6--3-3-3-3-3-3-3-3--|
|--3-3-3-3--4-4-4-4--1-1-1-1-1-1-1-1--|
chorus                    x4

|-----------------------------------------------------|
|-----------------------------------------------------|
|--5-5-5-5-5-5-5-5--9-9-9-9-9-9-9-9--5-5-5-5-5-5-5-5--|
|--5-5-5-5-5-5-5-5--9-9-9-9-9-9-9-9--5-5-5-5-5-5-5-5--|
|--3-3-3-3-3-3-3-3--7-7-7-7-7-7-7-7--3-3-3-3-3-3-3-3--|
|-----------------------------------------------------|
post chorus  part 1

post chorus part 2  and outro is same as chorus.

that's it.
any comments etc. email me.
Related for Lasciami Leccare Ladrenalina tab