Song name
# A B C D E F G H I J K L M N O P Q R S T U V W X Y Z

Afterhours - Dea tab

AFTERHOURS

DEA

tabbed by dan (yellowledbetter_69@hotmail.co.uk)

Dropped-D tuning

|---------------------|
|---------------------|
|---------------------|
|---7-7-7-7--0--7/10--|
|---7-7-7-7--0--7/10--|
|---7-7-7-7--0--7/10--|
guitar 1   intro/ chorus/ verse 2

|-----------------------|
|-----------------------|
|-----------------------|
|------7-------7-/10\7--|
|--------7--------------|
|---7------7------------|
guitar 2 intro/ verse/ chorus

|----------------------------------|
|----------------------------------|
|-----*--------*---------*---------|
|----12--------9---------5---------|
|----12--------9---------5---------|
|----12--------9---------5---------|
pre-chorus both guitars  *=play 16 times


that's everything.
any comments email me.
Tap to rate this tab
# A B C D E F G H I J K L M N O P Q R S T U V W X Y Z