Guitaretab - guitar tabs
Song name
# A B C D E F G H I J K L M N O P Q R S T U V W X Y Z

Afterhours - Bye Bye Bombay tab

AFTERHOURS

BYE BYE BOMBAY

tabbed by dan (yellowledbetter_69@hotmail.co.uk)

Drop-D tuning

|--------------------------------------------------------------------------|
|--------------------------------------------------------------------------|
|--------------------------------------------------------------------------|
|--------------------------------------------------------------------------|
|-4h5p4h5p4h5p4---5---7--9---9--10-9-10/12---10-9-10-9\7--4h5p4h5p4h5p4--5--|
|---------------0---0--0---0---------------0---------------------------0---|
intro with flanger clean tone

nothing is played until vocals come in

|-----------------------------------------------------------------|
|-----------------------------------------------------------------|
|----*--------%-----%-----*---------------------------------------|
|----7--------7-----8-----9------x-x-x-x-x-x-x-x-x-x-x-x-x-x-x-x--|
|----5--------7-----8-----9------x-x-x-x-x-x-x-x-x-x-x-x-x-x-x-x--|
|----0--------7-----8-----9------x-x-x-x-x-x-x-x-x-x-x-x-x-x-x-x--|
guitar verse flanger  *=play 16 times        mute (clean tone 1st time, fuzz 2nd)
        %=play 8 times

|---------------x-x-x-x-x-x---------------x-x-x-x-x-x--|
|---------------x-x-x-x-x-x---------------x-x-x-x-x-x--|
|---------------x-x-x-x-x-x---------------x-x-x-x-x-x--|
|----9-9--------x-x-x-x-x-x------5-5------x-x-x-x-x-x--|
|----9-9--------x-x-x-x-x-x------5-5------x-x-x-x-x-x--|
|----9-9--------x-x-x-x-x-x---0--5-5------x-x-x-x-x-x--|
pre-chorus part 1    fuzz   (io..non...tremo...)      x2

|------------------------------------|
|------------------------------------|
|------------------------------------|
|--7-7-7-7-7-7-7-7--9-9-9-9-9-9-9-9--|
|--5-5-5-5-5-5-5-5--9-9-9-9-9-9-9-9--|
|--0-0-0-0-0-0-0-0--9-9-9-9-9-9-9-9--|
pre-chorus part 2   clean tone flanger    x3

|-----------------------------------------|
|-----------------------------------------|
|-----------------------------------------|
|--7-7-7-7-7-7-7-7-7-7-7-7-7-7-7-7-7-7-7--|
|--5-5-5-5-5-5-5-5-5-5-5-5-5-5-5-5-5-5-5--|
|--0-0-0-0-0-0-0-0-0-0-0-0-0-0-0-0-0-0-0--|
pre-chorus part continued    (bye bye bye bye....)
[ Tab from: http://www.guitaretab.com/a/afterhours/175258.html ]
|------------------------------------|
|------------------------------------|
|------------------------------------|
|--7-7-----7-7-----7-7-----7-7-------|
|--5-5-----5-5-----5-5-----5-5-------|
|--0-0-----0-0-----0-0-----0-0-------|
pre-chorus continued  (bye bye bye bye bye bye bye bye  Bombay)

|----------------------------------|
|----------------------------------|
|----------------------------------|
|----------------------------------|
|-4h5p4---4h5-4-5--5--7-7-7\5-4-5--|
|----------------------------------|
chorus   part 1   with fuzz flanger off       x2

|------------------------------------------|
|------------------------------------------|
|------------------------------------------|
|------------------------------------------|
|--9-7-9-10--10-9-9-9--7-9-10-10--9-9-9-7--|
|------------------------------------------|
chorus part 2         x1 

|------------------------------------------|
|------------------------------------------|
|------------------------------------------|
|------------------------------------------|
|--4h5p4--4-5--4-5--5-5--5-5/7\5--4h5-4h5--|
|------------------------------------------|
chorus part 3    (not so sure about this bar)

verse 2 and pre-chorus are the same as the first

for chorus 2, play the first chorus once, then the following:

|--------------------------------------------|
|--------------------------------------------|
|--------------------------------------------|
|--------------------------------------------|
|-/12-12-12-10-10-10\9-7-9-7h9p7-5-5--4-5-7--|
|--------------------------------------------|
       x2

|-----------------------------------------------------|
|-----------------------------------------------------|
|-----------------------------------------------------|
|-----------------------------------------------------|
|--/9--/10--/12--/10--4h5p4---4h5-4-5--5--7-7-7\5-4-5--|
|-----------------------------------------------------|
 again, not so sure, but sounds OK

for outro, just improvise in D, it's too quiet to hear

at the end this riff kicks in, with fuzz:

|-------------------------------------------|--------------|----------------|
|-/7-7--------------------------7-7---------|--------------|----------------|
|-/7-7--------------------------7-7---------|--------------|----------------|
|-/7-7-x-x-x-x--9-9--x-x-x-x-x--7-7-x-x-x-x-|-5-5-x-x-x-x--|-5-5-5-5-5-5-5--|
|-/5-5-x-x-x-x--9-9--x-x-x-x-x--5-5-x-x-x-x-|-5-5-x-x-x-x--|-5-5-5-5-5-5-5--|
|------x-x-x-x--9-9--x-x-x-x-x------x-x-x-x-|-5-5-x-x-x-x--|-5-5-5-5-5-5-5--|
                                             1st time      2nd time    (x2)

that's about 95% correct. any comments etc email me.

Related for Bye Bye Bombay tab
Advertisement will be closed in 10 seconds