Song name
# A B C D E F G H I J K L M N O P Q R S T U V W X Y Z

Afterhours - Varanasi Baby tab

AFTERHOURS

VARANASI BABY

tabbed by dan (yellowledbetter_69@hotmail.co.uk)

Drop-D tuning

|-----------------------------------------|
|-----------------------------------------|
|-----------------------------------------|
|-----------------------------------------|
|----/9------9------9----------------5-7--|
|-------9-9----7-7----5-5-5--7-7-9-9------|
intro

|-------------------------------------|
|-------------------------------------|
|-------------------------------------|
|-------------------------------------|
|----/9-----9------9-------------5-7--|
|-------9-9---7-7----5-5-7-7-9-9------|
intro/verse

|-----------------------------------------------------------------------|
|-----------------------------------------------------------------------|
|-----------------------------------------------------------------------|
|---9-9-9-9--7-7-7--5-5-5-5----7-7----9-9-9-9--7-7-7-----5-5-5--7-7-7---|
|---9-9-9-9--7-7-7--5-5-5-5----7-7----9-9-9-9--7-7-7-----5-5-5--7-7-7---|
|---9-9-9-9--7-7-7--5-5-5-5----7-7----9-9-9-9--7-7-7-----5-5-5--7-7-7---|
chorus

|------------------------------------------------------------|
|------------------------------------------------------------|
|------------------------------------------------------------|
|------------7------------------------------7h9--7-----------|
|---5---7/9-----9vvvvv----5h7/9---5h7/9--7h9---------7--5----|
|------------------------------------------------------------|
fill in 2nd chorus

|---------------------------------------------------|
|---------------------------------------------------|
|-------------------7vvvvvv----------------7vvv-----|
|---------------7-9---------------------7-----------|
|---2--5--7--9--------------2--5--7--9--------------|
|---------------------------------------------------|
solo

|------------------------------------------------------------|
|------------------------------------------------------------|
|-------9-7--------------------------------------------------|
|---7-9------9-7---------------------------------------------|
|----------------9\7\5vvvv---7--9-9--2-5-7-7/9---------------|
|----------------------------------------------9--9--7-7-----|
solo continued

|----------------------------------------------------------|
|----------------------------------------------------------|
|-----------7-9-7------------7--9/11--7-9-7----------------|
|-----------------9-7---/7-9----------------9-7-9----------|
|----/9--------------------------------------------9\7\5---|
|-------9--------------------------------------------------|
bridge            fuzz off

|---------------------------------------------------------|
|---------------------------------------------------------|
|-----7-9-9/11-9-7----------------7-9-9/11---7-9---9-7----|
|--/9--------------9-7---------/9----------------9--------|
|----------------------9-7-5------------------------------|
|---------------------------------------------------------|
bridge continued

|-----------------------|
|-----------------------|
|------7----9----9--7---|
|----9---9----9---------|
|-----------------------|
|-----------------------|
bridge continued    play this a few times

last verse has no guitar, and last chorus is the same as the others, but with the following fills

|---------------------------------------|
|-----------------------7-10-10-12vvvv--|
|------------------7-9------------------|
|--------------7-9----------------------|
|-2-5-2--5/7/9--------------------------|
|---------------------------------------|

|---------------------------------|
|---------------------------------|
|---------------------------------|
|----------------7h9--7-----------|
|---5h7/9--5h7/9--------9--5--2---|
|---------------------------------|

|----------------------------------------------------|
|----------------------------------------------------|
|----------------------------------------------------|
|--------------------7-7-9vv---------7h9-7h9---------|
|--2-5p2-5/7p5-7-9p7---------5h7-7h9----------9p7\5--|
|----------------------------------------------------|

that's about it. the solo parts are not 100% accurate, but they are the best i can make out
seeing as they have a lot of fuzz on them. just improv.
any comments, suggestions etc. email me.
Tap to rate this tab
# A B C D E F G H I J K L M N O P Q R S T U V W X Y Z