Song name
# A B C D E F G H I J K L M N O P Q R S T U V W X Y Z

Afterhours - Tutto Fa Un Po Male tab

AFTERHOURS

TUTTO FA UN PO' MALE

tabbed by dan (yelowledbetter_69@hotmail.co.uk)

standard tuning

                                             harmonics
|-----------1--------2--------1------|---------------|
|---1-------3--------1--------3------|--------7*-----|
|---2-------2--------2--------2------|--------7*-----|
|---2-------0-----------------0------|-----7*--------|
|---0--------------------------------|---------------|
|------------------------------------|---------------|
intro/verse guitar 1               this fill is played through intro/verse

|-------------------------------------------|
|-------------------------------------------|
|-------------------------------------------|
|---0--3--0-----0-3-0----0--3--0-----0-3-0--|
|------------0--------------------0---------|
|-------------------------------------------|
guitar 2 intro/verse   with heavy, fast phaser

about halfway through the verse, guitar 2 plays this:

|------------------|------1-0-1-------|------2-0-2-------|-----------------|
|------1-0-1-------|------------3---3-|----1-------1---1-|-----1-0-1-------|
|------------2---2-|---2----------2---|--2-----------2---|-----------2---2-|
|---2----------2---|-0----------------|------------------|---2---------2---|
|-0----------------|------------------|------------------|-0---------------|
|------------------|------------------|------------------|-----------------|
     x2               x2                 x2                   x2

|-------------------3-3-3-3-3-3-3-3-------------------0-0-0-0-0-0-0-0--|
|--1-1-1-1-1-1-1-1--3-3-3-3-3-3-3-3--1-1-1-1-1-1-1-1--3-3-3-3-3-3-3-3--|
|--2-2-2-2-2-2-2-2--0-0-0-0-0-0-0-0--0-0-0-0-0-0-0-0--2-2-2-2-2-2-2-2--|
|--2-2-2-2-2-2-2-2--0-0-0-0-0-0-0-0--2-2-2-2-2-2-2-2--0-0-0-0-0-0-0-0--|
|--0-0-0-0-0-0-0-0--2-2-2-2-2-2-2-2--3-3-3-3-3-3-3-3-------------------|
|-------------------3-3-3-3-3-3-3-3------------------------------------|
chorus

second verse is same as first

|---------------------------------------------------------------------|
|---------------------------------------------------------------------|
|--2--4-4/5---4-5-5/7--5-5----5-5/10-10--9-9\7-7-7\5--5-5\4--2--2-----|
|---------------------------------------------------------------------|
|---------------------------------------------------------------------|
|---------------------------------------------------------------------|
solo   with slow phaser

for rest of solo, hit strings behind nut quickly while guitar 1 plays verse chords.

there is then a 'quiet' chorus which is the same chords as other chorus, just strummed lightly
   play harmonic fill over this.

back to normal chorus, and that's everything.

any comments, suggestions etc, email.
Tap to rate this tab
# A B C D E F G H I J K L M N O P Q R S T U V W X Y Z