Song name
# A B C D E F G H I J K L M N O P Q R S T U V W X Y Z

Afterhours - Pelle tab

AFTERHOURS

PELLE

tabbed by dan (yellowledbetter_69@hotmail.co.uk)

standard tuning

|-------------3---------3---------1----| X2
|-----1-------1---------3---------1----|
|-----2-------0---------0---------2----|
|-----2-------2---------0---------3----|
|-----0-------3---------2---------3----|
|-----------------------3---------1----|
intro (very quiet)    play loosely

|-------------------------|
|-------------------------|
|-------------------------|
|-----5h7p5h7p5h7p5h7-----|
|-------------------------|
|-------------------------|
guitar 2  (the part that echoes around the speakers)

|-----------------------------3--3--3--3---1--1--1--1--1----|
|---1--1--1--1---1--1--1--1---3--3--3--3---1--1--1--1--1----|
|---2--2--2--2---0--0--0--0---0--0--0--0---2--2--2--2--2----|
|---2--2--2--2---2--2--2--2---0--0--0--0---3--3--3--3--3----|
|---0--0--0--0---3--3--3--3---2--2--2--2---3--3--3--3--3----|
|-----------------------------3--3--3--3---1--1--1--1--1----|
guitar 1 verses

|-------0----------3----3---3--------------|
|---------1--1--1----1--3-----3------------|
|----2-------0--0-------0-------0----------|
|----2-------2--2-------0----------/3------|
|----0-------3--3-------2----------/3------|
|-----------------------3----------/1------|
guitar 2 verses, with tremolo effect   (played loosely, this is just a rough guide)

|--------------------------------------------2--2--2--2---|
|------------------1--1--1--1---1--1--1--1---3--3--3--3---|
|-----0--0--0--0---2--2--2--2---0--0--0--0---2--2--2--2---|
|-----2--2--2--2---2--2--2--2---2--2--2--2---0--0--0--0---|
|-----2--2--2--2---0--0--0--0---3--3--3--3----------------|
|-----0--0--0--0------------------------------------------|
pre-chorus both guitars

|------------------------------------------------------|
|----1--1--1--1---1--1--1--1---1--1--1--1---1--1--1----|
|----2--2--2--2---0--0--0--0---2--2--2--2---0--0--0----|
|----2--2--2--2---2--2--2--2---2--2--2--2---2--2--2----|
|----0--0--0--0---3--3--3--3---0--0--0--0---3--3--3----|
|------------------------------------------------------|
pre-chorus continued  (guitar 2 plays same chords but with tremolo pedal and strum upwards)

chorus is played with the same chords as the verse, and prechorus is the same

for the bridge, guitar 2 plays same as verses, and guitar 1 plays this:

|-----------------------3--3--3--3---1--1--1--1--1---|
|----1-----1-------1----3--3--3--3---1--1--1--1--1---|
|----2-----2-------0----0--0--0--0---2--2--2--2--2---|
|----2-----2---4---2----0--0--0--0---3--3--3--3--3---|
|----0-----0---2---3----2--2--2--2---3--3--3--3--3---|
|-----------------------3--3--3--3---1--1--1--1--1---|

back to chorus

|------7---7---7--------7---7-------3--5--5/7-7--5----------------|
|--------5---5---5--1-----5---5---5-------------------------------|
|-------------------0------------------------------5-5-5-5-5-5-5--|
|-------------------2---------------------------------------------|
|-------------------3---------------------------------------------|
|-----------------------------------------------------------------|
outro guitar 1 

|-----------------------8-5------------------------------3/5--------|
|--1----------------1-------8-5---------------------5\3-------------|
|--2----------------0-----------------------------------------------|
|--2----------------2-----------------------------------------------|
|--0----------------3-----------------------------------------------|
|-------------------------------------------------------------------|
outro guitar 2   with tremolo effect

|--------3---3---3-----7---7---7---7------3-5-5/7-7-5----|
|------1---1---1-----5---5---5---5------5----------------|
|--------------------------------------------------------|
|--------------------------------------------------------|
|---0----------------------------------------------------|
|--------------------------------------------------------|
outro guitar 1 continued

guitar two then just hits strings behind the nut until the end.

that's it. any comments, suggestions etc, email me.

Tap to rate this tab
 
# A B C D E F G H I J K L M N O P Q R S T U V W X Y Z