Song name
# A B C D E F G H I J K L M N O P Q R S T U V W X Y Z

Afterhours - Male Di Miele chords

Highlighted       Show chord diagrams
MALE DI MIELE - Afterhours
claudio@tognozzi.it

G|-----------------|-----------------|
D|-9-9-9-9-9-------|-5-5-5-5-7-7-7-7-|   (x4)
A|-9-9-9-9-9-------|-5-5-5-5-7-7-7-7-|
E|-7-7-7-7-7-------|-3-3-3-3-5-5-5-5-|

Bm     		G  		A          (X2)
 La sicurezza ha un ventre tenero
 ma è un demonio steso tra di noi
 Ti manca e quindi puoi non crederlo
 ma io non mi sentivo libero

Bm     G  	A          (X4)

 E non è dolce essere unici
 ma se hai un proiettile ti libero
 Gli errori veri son più forti poi
 quando fan finta d'esser morti lo sai 

G|-9-------|-11-------|-12-------|-11-------|
D|-9-------|-11-------|-12-------|-11-------|   (x2)
A|-7-------|-9--------|-10-------|-9--------|
E|---------|----------|----------|----------|

E       F#         G          F#
Copriti  bene  se ti senti  fredda
Hai la pressione bassa nell'anima,...

G|-9--9-9--7--7-7-|-------------------|
D|-9--9-9--7--7-7-|-7--7-7--10--10-10-|
A|-7--7-7--5--5-5-|-7--7-7--10--10-10-|
E|----------------|-5--5-5--8---8--8--|

	E            D         A    	C
com'è strano il sapore che riesco a sentire

Bm     	G  	A          
Male di miele (x4)

Bm     		G  		A          (X2)
E la grandezza della mia morale
 è proporzionale al mio successo
 Così ho rifatto il letto al meglio sai
 che sembra non c'abbia dormito mai

E       F#         G          F#
Copriti  bene  se ti senti  fredda
Hai la pressione bassa nell'anima...
	E            D         A    	C
com'è strano il sapore che riesco a sentire

Bm     	G  	A          
Male di miele (x4)

C#m     A    B
Ti do le stesse possibilità
Bm     	G  	A          
di neve al centro dell'inferno più in là

Bm     	G  	A          
Male di miele (x4)

Tap to rate this tab
 
# A B C D E F G H I J K L M N O P Q R S T U V W X Y Z